Home » L » Laura Story »

Laura Story - Blessings Tabs

Artists:  A B C D E F G H I J K L M N O P Q R S T U V W X Y Z # 

Blessings Tabs

(ver. 2) Click to play this song!
Laura Story
e|-1---3---0-----------------------------------------------------------------|
B|-------------1---3----------0---1---1---0----------------------------------|
G|------------------------2-------------------0----------0-------------------|
D|--------------------------------------------2------3-------2-------0-------|
A|--------------------------------------------2------0-----------3-----------|
E|---------------------------------------------------------------------------|

e|---------------------------------------------------------------------------|
B|---------------------------------------------------------------------------|
G|-0---------------0---------------------------------------------------------|
D|---------------------------------------------------------------------------|
A|-0---3---2---3-------------------------------------------------------------|
E|-8-------------------------------------------------------------------------|            
Submit corrections

↑ Back to top | Tablatures and chords for acoustic guitar and electric guitar, ukulele, drums are parodies/interpretations of the original songs. You may use it for private study, scholarship, research or language learning purposes only