Home » L » Laura Jansen »

Laura Jansen - Wicked World Tabs

Artists:  A B C D E F G H I J K L M N O P Q R S T U V W X Y Z # 

Wicked World Tabs

(ver. 1) Click to play this song!
Laura Jansen
 Rating:
3/5 (23 votes)
                Intro & verse

E ---------------------------------|| 
B ---5---5---4---4---3---3---1---1-|| 
G ---------------------------------||  repeat during verses
D ---5---5---4---4---3---3---2---2-|| 
A -3---3---3---3---3---3---3---3---||
E ---------------------------------||


Refr.

   D#  Bb  Cm  Cm/B   D#  Bb  CM/B
E -3---1---3----3-----3---1---3----|| 
B -4---3---4----4-----4---3---4----|| 
G -3---3---5----5-----3---3---5----|| 
D -5---3---5----5-----5---3---5----||
A -6---1---3----3-----6---1---3----||
E -3---1---3----x-----3---1---3----||



Bridge
  Fm  Cm  Fm  Cm  Fm  Cm  Cm/B Cm/Bb Cm/A  G#  G
e -1---3---1---3---1---3---3----3-----3----4---3-|| 
B -1---4---1---4---1---4---4----4-----4----4---3-|| 
G -2---5---2---5---2---5---5----5-----5----5---4-|| 
D -3---5---3---5---3---5---5----5-----5----6---5-|| 
A -3---3---3---3---3---3---2----1-----0----6---5-|| 
E -1---3---1---3---1---3---x----x-----x----4---3-||
            
Submit corrections

↑ Back to top | Tablatures and chords for acoustic guitar and electric guitar, ukulele, drums are parodies/interpretations of the original songs. You may use it for private study, scholarship, research or language learning purposes only