Home » L » Laura Branigan »

Laura Branigan - Gloria Tabs

Artists:  A B C D E F G H I J K L M N O P Q R S T U V W X Y Z # 

Gloria Tabs

(ver. 1) Click to play this song!
Laura Branigan
Intro: (Keys swell-in)
G||--------------------------------------------------|
D||--------------------------------------------------|
A||--0--0--0--0--0--0--0--0--0--0--0--0--0--0--0--0--|
E||--------------------------------------------------|

G||---9--9--9--9--9--9--9--9--9--9--9--9--9--9--9--9-|
D||--------------------------------------------------|
A||--7--7--7--7--7--7--7--7--7--7--7--7--7--7--7--7--|
E||--------------------------------------------------|

G||--------------------------------------------------|
D||--------------------------------------------------|
A||--0--0--0--0--0--0--0--0--0--0--0--0--0--0--0--0--|
E||--------------------------------------------------|

VERSE 1:
G||---9--9--9--9--9--9--9--9-|-------------------------|
D||*-------------------------|------------------------*|
A||*-7--7--7--7--7--7--7--7--|-0--0--0--0--0--0--0--0-*| X4
E||--------------------------|-------------------------|

Bridge:
G||-------------------------------------------------------------|
D||--------7-9--99-976----------9-7--77-764---------4-----------|
A||-9-99-9------------9--7-77-7------------7-5--55-5---7-77-7-7-|
E||-------------------------------------------------------------|

Chorus:
G||--------------------------|--9--9--9--9--9--9--9--9--|
D||*-------------------------|-------------------------*|
A||*-0--0--0--0--0--0--0--0--|-7--7--7--7--7--7--7--7--*| X2
E||--------------------------|--------------------------|

G||------------------------|--9--9----------------------------------------|
D||------------------------|----------------------------------------------|
A||-0--0--0--0--0--0--0--0-|-7--7--77-9-10*--10-(101010)\55--5-7--77--777-|
G||------------------------|----------------------------------------------|

G||--------------------------|--9--9--9--9--9--9--9--9--|
D||*-------------------------|-------------------------*|
A||*-0--0--0--0--0--0--0--0--|-7--7--7--7--7--7--7--7--*| X2
E||--------------------------|--------------------------|

G||--------------------------|
D||--------------------------|
A||--0--0--0--0--0--0--0--0--|
E||--------------------------|

Bridge:
G||-------------------------------------------------------------|
D||--------7-9--99-976----------9-7--77-764---------4-----------|
A||-9-99-9------------9--7-77-7------------7-5--55-5---7-77-7-7-|
E||-------------------------------------------------------------|

G||--------------------------|
D||--------------------------|
A||--0--0--0--0--0--0--0--0--|
E||--------------------------|

G||---9--9--9--9--9--9--9--9--9--9--9--9--9--9--9--9-|
D||--------------------------------------------------|
A||--7--7--7--7--7--7--7--7--7--7--7--7--7--7--7--7--|
E||--------------------------------------------------|

G||--------------------------------------------------|
D||--------------------------------------------------|
A||--0--0--0--0--0--0--0--0--0--0--0--0--0--0--0--0--|
E||--------------------------------------------------|

Verse 2:
G||---9--9--9--9--9--9--9--9-|-------------------------|
D||*-------------------------|------------------------*|
A||*-7--7--7--7--7--7--7--7--|-0--0--0--0--0--0--0--0-*| X4
E||--------------------------|-------------------------|

Bridge:
G||-------------------------------------------------------------|
D||--------7-9--99-976----------9-7--77-764---------4-----------|
A||-9-99-9------------9--7-77-7------------7-5--55-5---7-77-7-7-|
E||-------------------------------------------------------------|

Chorus:
G||--------------------------|--9--9--9--9--9--9--9--9--|
D||*-------------------------|-------------------------*|
A||*-0--0--0--0--0--0--0--0--|-7--7--7--7--7--7--7--7--*| X2
E||--------------------------|--------------------------|

G||------------------------|--9--9----------------------------------------|
D||------------------------|----------------------------------------------|
A||-0--0--0--0--0--0--0--0-|-7--7--77-9-10*--10-(101010)\55--5-7--77--777-|
G||------------------------|----------------------------------------------|

G||--------------------------|--9--9--9--9--9--9--9--9--|
D||*-------------------------|-------------------------*|
A||*-0--0--0--0--0--0--0--0--|-7--7--7--7--7--7--7--7--*| X2
E||--------------------------|--------------------------|

G||--------------------------|
D||--------------------------|
A||--0--0--0--0--0--0--0--0--|
E||--------------------------|

Bridge:
G||-------------------------------------------------------------|
D||--------7-9--99-976----------9-7--77-764---------4-----------|
A||-9-99-9------------9--7-77-7------------7-5--55-5---7-77-7-7-|
E||-------------------------------------------------------------|

Outro:
G||--------------------------|--9--9--9--9--9--9--9--9--|
D||*-------------------------|-------------------------*|
A||*-0--0--0--0--0--0--0--0--|-7--7--7--7--7--7--7--7--*| REPEAT AND FADE
E||--------------------------|--------------------------|
            
Submit corrections

↑ Back to top | Tablatures and chords for acoustic guitar and electric guitar, ukulele, drums are parodies/interpretations of the original songs. You may use it for private study, scholarship, research or language learning purposes only