» » »

Laura Branigan - Gloria Bass

Artists:  A B C D E F G H I J K L M N O P Q R S T U V W X Y Z # 

Gloria Bass

(ver. 1) Click to play this song!
Laura Branigan
 Rating:
4/5 (5 votes)
                
Key: E
Intro:
  E
G:-9--9--9--9--9--9--9--9--9--9--9--9--9--9--9--9--------------
D:-------------------------------------------------------------
A:7--7--7--7--7--7--7--7--7--7--7--7--7--7--7--7---------------
E:-------------------------------------------------------------

  A 
G:-------------------------------------------------------------
D:-7--7--7--7--7--7--7--7--7--7--7--7--7--7--7--7--------------
A:0--0--0--0--0--0--0--0--0--0--0--0--0--0--0--0---------------
E:-------------------------------------------------------------


Verse:
  E                        A
G:-9--9--9--9--9--9--9--9--------------------------------------
D:--------------------------7--7--7--7--7--7--7--7-------------
A:7--7--7--7--7--7--7--7---0--0--0--0--0--0--0--0--------------
E:-------------------------------------------------------------

  E                        A
G:-9--9--9--9--9--9--9--9--------------------------------------
D:--------------------------7--7--7--7--7--7--7--7-------------
A:7--7--7--7--7--7--7--7---0--0--0--0--0--0--0--0--------------
E:-------------------------------------------------------------

  E                        A
G:-9--9--9--9--9--9--9--9--------------------------------------
D:--------------------------7--7--7--7--7--7--7--7-------------
A:7--7--7--7--7--7--7--7---0--0--0--0--0--0--0--0--------------
E:-------------------------------------------------------------

  E                        A
G:-9--9--9--9--9--9--9--9--------------------------------------
D:--------------------------7--7--7--7--7--7--7--7-------------
A:7--7--7--7--7--7--7--7---0--0--0--0--0--0--0--0--------------
E:-------------------------------------------------------------

  F#        B           E        A          D         E
G:-------------------------------------------------------------
D:--------7-9--99-976----------9-7--77-764---------4-----------
A:-9-99-9------------9--7-77-7------------7-5--55-5---7-77-7-7-
E:-------------------------------------------------------------


   A
G:-------------------------------------------------------------
D:--7--7--7--7--7--7--7--7--7----------------------------------
A:-0--0--0--0--0--0--0--0--0-----------------------------------
E:-------------------------------------------------------------

  E                        A
G:-9--9--9--9--9--9--9--9--------------------------------------
D:--------------------------7--7--7--7--7--7--7--7-------------
A:7--7--7--7--7--7--7--7---0--0--0--0--0--0--0--0--------------
E:-------------------------------------------------------------

  E                        A
G:-9--9--9--9--9--9--9--9--------------------------------------
D:--------------------------7--7--7--7--7--7--7--7-------------
A:7--7--7--7--7--7--7--7---0--0--0--0--0--0--0--0--------------
E:-------------------------------------------------------------

  E            G                D            E                         
G:-9--9--9--9----12--12--12--12--7--7--7--7---9--9--9--9-------
D:-------------------------------------------------------------
A:7--7--7--7---10--10--10--10---5--5--5--5---7--7--7--7--------
E:-------------------------------------------------------------

-repeat above sequences as necessary-
            
Submit corrections

↑ Back to top | Tablatures and chords for acoustic guitar and electric guitar, ukulele, drums are parodies/interpretations of the original songs. You may use it for private study, scholarship, research or language learning purposes only