» » »

Last Dinosaurs - Honolulu Tabs

Artists:  A B C D E F G H I J K L M N O P Q R S T U V W X Y Z # 

Honolulu Tabs

(ver. 2) Click to play this song!
Last Dinosaurs
 Rating:
4/5 (4 votes)

 Honolulu lessons Tabs too difficult? Try these video lessons and learn fast
 
                Honolulu.
Intro (main riff): (guitar 1 only)
e|----------------------------------------------------------------------|
B|----------------------------------------------------------------------|
G|-----6----8--6------8-----11-9--8-------6---4-4----6---4--4-----------|
D|------6------6-------8------------11-----4----4-----4---4-------------| x2
A|---7---7-----7-7/9----9---------------6---6---6--6---6---6------------|
E|----------------------------------------------------------------------|

Guitar 1 
e|-----------------------------------------------------------------------|
B|-----------------------------------------------------------------------|
G|-----6----8--6------8-----11-9--8-------6---4-4----6---4--4------------|
D|------6------6-------8------------11-----4----4-----4---4--------------| x2
A|---7---7-----7-7/9----9---------------6---6---6--6---6---6-------------|
E|-----------------------------------------------------------------------|

Played along with guitar 2:
e|---9----11-9/11--11-----14-12--11-----9--7-7----9----7-----------------|
B|-----9-----9/11----11------------14----7---7------7---7--7-------------|
G|--9----9---9/11------11--------------8-----8---8---8---8---------------|
D|-----------------------------------------------------------------------| x2
A|-----------------------------------------------------------------------|
E|-----------------------------------------------------------------------|

Verse:
Guitar 1:
e|-----------------------------------------------------------------------|
B|-----------------------------------------------------------------------|
G|--8---8--6----6p4------------------------------------------------------|
D|--6---8--4----4-4------------------------------------------------------| x4
A|--7---9--6----6-6------------------------------------------------------|
E|-----------------------------------------------------------------------|

Guitar 2: (comes in on the future)

e|-7---7---2-------------------------------------------------------------|
B|-9---5---4-------------------------------------------------------------|
G|-8---4---3-------------------------------------------------------------|
D|-9---6---4-------------------------------------------------------------|x2
A|-7---4---2-------------------------------------------------------------|
E|-----4---2-------------------------------------------------------------|


Pre-chorus (main riff)
Guitar 1 
e|----------------------------------------------------------------------|
B|----------------------------------------------------------------------|
G|-----6----8--6------8-----11-9--8-------6---4-4----6---4--4-----------|
D|------6------6-------8------------11-----4----4-----4---4-------------| x2
A|---7---7-----7-7/9----9---------------6---6---6--6---6---6------------|
E|----------------------------------------------------------------------|

Guitar 2:
e|---9----11-9/11--11-----14-12--11-----9--7-7----9----7-----------------|
B|-----9-----9/11----11------------14----7---7------7---7--7-------------|
G|--9----9---9/11------11--------------8-----8---8---8---8---------------|
D|-----------------------------------------------------------------------| x2
A|-----------------------------------------------------------------------|
E|-----------------------------------------------------------------------|

Chorus: (oooooohhhhhhhhhh)
Guitar 1:
e|-777777777--999999999---------------------------------------------------|
B|-555555555--777777777--444444444-444444444------------------------------|
G|-444444444--666666666—-444444444-444444444------------------------------|
D|-666666666--888888888--444444444-444444444------------------------------| 
A|-444444444--666666666--666666666-666666666------------------------------|
E|------------------------------------------------------------------------|

Guitar 2:
e|------------------------------------------------------------------------|
B|------------------------------------------------------------------------|
G|--18/20--16/18--------------------18/20--16/18--------------------------|
D|------------------18181818—--x2-------------------16161616----x2--------|x4 
A|--16/18--14/16--------------------16/18--14/16--------------------------|
E|------------------16161616------------------------14141414--------------|

Solo: 
Guitar 1:
e|----------------------------------7---7---2----------------------------|
B|----------------------------------9---5---4----------------------------|
G|--8---8--6----6p4-------8-8-6-----8---4---3----------------------------|
D|--6---8--4----4-4-------6-6-6-----9---6---4----------------------------| 
A|--7---9--6----6-6-------x-x-7-----7---4---2----------------------------|
E|------------------------7-7-----------4---2----------------------------|
(through chorus)
e|-----------------------------------------------------------------------|
B|-----------------------------------------------------------------------|
G|--8---8--6----6p4------------------------------------------------------|
D|--6---8--4----4-4------------------------------------------------------| 
A|--7---9--6----6-6------------------------------------------------------|
E|-----------------------------------------------------------------------|

 Guitar 2:
e|------------------------------------------------------------------------|
B|------------------------------------------------------------------------|
G|------------------------------------------------------------------------|
D|------------[solo]------------------------------------------------------|
A|------------------------------------------------------------------------|
E|------------------------------------------------------------------------|

Verse:
Guitar 1:
e|-----------------------------------------------------------------------|
B|-----------------------------------------------------------------------|
G|--8---8--6----6p4------------------------------------------------------|
D|--6---8--4----4-4------------------------------------------------------| x4
A|--7---9--6----6-6------------------------------------------------------|
E|-----------------------------------------------------------------------|

Guitar 2:
e|-----------------------------------------------------------------------|
B|-----------------------------------------------------------------------|
G|--4p3—4p3---4p3--------------------------------------------------------|
D|-----------------------------------------------------------------------|x4
A|-----------------------------------------------------------------------|
E|-----------------------------------------------------------------------|

Guitar 1: (these people).
e|-----------------------------------------------------------------------|
B|-----------------------------------------------------------------------|
G|--8---8--6----6p4------------------------------------------------------|
D|--6---8--4----4-4------------------------------------------------------| 
A|--7---9--6----6-6------------------------------------------------------|
E|-----------------------------------------------------------------------|

Guitar 2: (these people)

e|-7---7---2-------------------------------------------------------------|
B|-9---5---4-------------------------------------------------------------|
G|-8---4---3-------------------------------------------------------------|
D|-9---6---4-------------------------------------------------------------|x2
A|-7---4---2-------------------------------------------------------------|
E|-----4---2-------------------------------------------------------------|


Chorus: (oooooohhhhhhhhhh)
Guitar 1:
e|-777777777--999999999---------------------------------------------------|
B|-555555555--777777777--444444444-444444444------------------------------|
G|-444444444--666666666—-444444444-444444444------------------------------|
D|-666666666--888888888--444444444-444444444------------------------------| 
A|-444444444--666666666--666666666-666666666------------------------------|
E|------------------------------------------------------------------------|

Guitar 2:
e|------------------------------------------------------------------------|
B|------------------------------------------------------------------------|
G|--18/20--16/18--------------------18/20--16/18--------------------------|
D|------------------18181818—--x2-------------------16161616----x2--------|x4 
A|--16/18--14/16--------------------16/18--14/16--------------------------|
E|------------------16161616------------------------14141414--------------|


Outro:
Guitar 1: (the story only just, just began)
e|-777777777--999999999---------------------------------------------------|
B|-555555555--777777777--666666666-444444444------------------------------|
G|-444444444--666666666—-444444444-444444444------------------------------|
D|-666666666--888888888--444444444-444444444------------------------------| 
A|-444444444--666666666--666666666-666666666------------------------------|
E|------------------------------------------------------------------------|

Guitar 2:
e|------------------------------------------------------------------------|
B|------------------------------------------------------------------------|
G|------------------------------------------------------------------------|
D|-16161616/1818181818-----1111111111/1313131313/14\13/14\13131313--------|
A|---------------------x2-------------------------------------------------|
E|-14141414/1616161616-----9-9-9-9-9-/1111111111/12\11/12\11111111--------|
            
Submit corrections


        Honolulu lessons Hard to play? Try these video lessons and learn fast Honolulu lessons
        
↑ Back to top | Tablatures and chords for acoustic guitar and electric guitar, ukulele, drums are parodies/interpretations of the original songs. You may use it for private study, scholarship, research or language learning purposes only