» » »

Last Dinosaurs - Evie Tabs

Artists:  A B C D E F G H I J K L M N O P Q R S T U V W X Y Z # 

Evie Tabs

(ver. 2) Click to play this song!
Last Dinosaurs
 Rating:
2.6/5 (24 votes)

 Evie  lessons Tabs too difficult? Try these video lessons and learn fast
 
                Tabbed by Jonathan Duong

Whole tab for Evie by Last Dinosaurs. Listen to song for strumming patterns and timing.

Intro
Guitar 1
e|-8--8--8--8--8--8--8--8--8--8--8--8--8----8--8--8--8--8--8---7-7-7-7-7---------------|
B|-10-10-10-10-10-10-10-10-10-10-10-10-10---8--8--8--8--8--8---8-8-8-8-8---------------|
G|-9--9--9--9--9--9--9--9--9--9--9--9--9----9--9--9--9--9--9---9-9-9-9-9---------------|
D|-10-10-10-10-10-10-10-10-10-10-10-10-10---10-10-10-10-10-10--9-9-9-9-9---------------| x5
A|-------------------------------------------------------------------------------------|
E|-------------------------------------------------------------------------------------|

Guitar 2
e|-------------------------------------------------------------------------------------|
B|--------------------15h17p15---------------------15h17p15----------------------------|
G|---------16h17p16-14--------14--------16h17p16-14--------14----------16h17p16-14-----|
D|-14h15-14---------------------14h15-14----------------------14h15-14-----------------|
A|-------------------------------------------------------------------------------------|
E|-------------------------------------------------------------------------------------|

e|-------------------------------------------------------------------------------------|
B|-15h17p15----------------------------15h17-15b17-------------------------------------|
G|---------14--------------16h17p16-14-------------------------------------------------|
D|------------14b15p14-----------------------------------------------------------------|
A|---------------------17--------------------------------------------------------------|
E|-------------------------------------------------------------------------------------|



Verse 1
Guitar 1                                                                
e|-8------8----8------7---8------8---8------7------------------------------------------|
B|-10-----10---8------8---10-----10--8------8------------------------------------------|
G|-9------9----9------9---9------9---9------9------------------------------------------|
D|-10-----10---10-----9---10-----10--10-----9------------------------------------------|
A|-------------------------------------------------------------------------------------|
E|-------------------------------------------------------------------------------------|

Guitar 2
e|-------------------------------------------------------------------------------------|
B|----------------------17-------------------------------------------------------------|
G|----17-19-17----17-19----19-17-16----------------------------------------------------|
D|-19----------19-------------------17-------------------------------------------------| x8
A|-------------------------------------------------------------------------------------|
E|-------------------------------------------------------------------------------------|

Chorus
Guitar 1
e|-8--8--8--8--8--8--8--8--8--8--8--8--8----8--8--8--8--8--8---7-7-7-7-7---------------|
B|-10-10-10-10-10-10-10-10-10-10-10-10-10---8--8--8--8--8--8---8-8-8-8-8---------------|
G|-9--9--9--9--9--9--9--9--9--9--9--9--9----9--9--9--9--9--9---9-9-9-9-9---------------|
D|-10-10-10-10-10-10-10-10-10-10-10-10-10---10-10-10-10-10-10--9-9-9-9-9---------------| x7
A|-------------------------------------------------------------------------------------|
E|-------------------------------------------------------------------------------------|

Guitar 2    Play as many times as in song
e|-------------------------------------------------------------------------------------|
B|--------------------15h17p15---------------------15h17p15----------------------------|
G|---------16h17p16-14--------14--------16h17p16-14--------14----------16h17p16-14-----|
D|-------14---------------------14h15-14----------------------14h15-14-----------------|
A|-------------------------------------------------------------------------------------|
E|-------------------------------------------------------------------------------------|

e|-------------------------------------------------------------------------------------|
B|-15h17p15----------------------------15h17-15b17-------------------------------------|
G|---------14--------------16h17p16-14-------------------------------------------------|
D|------------14b15p14-----------------------------------------------------------------|
A|---------------------17--------------------------------------------------------------|
E|-------------------------------------------------------------------------------------|

Verse 2
Guitar 1                                                                
e|-8------8----8------7---8------8---8------7------------------------------------------|
B|-10-----10---8------8---10-----10--8------8------------------------------------------|
G|-9------9----9------9---9------9---9------9------------------------------------------|
D|-10-----10---10-----9---10-----10--10-----9------------------------------------------|
A|-------------------------------------------------------------------------------------|
E|-------------------------------------------------------------------------------------|


Guitar 2
e|-------------------------------------------------------------------------------------|
B|----------------------17-------------------------------------------------------------|
G|----17-19-17----17-19----19-17-16----------------------------------------------------|
D|-19----------19-------------------17-------------------------------------------------| x8
A|-------------------------------------------------------------------------------------|
E|-------------------------------------------------------------------------------------|

Chorus
Guitar 1
e|-8--8--8--8--8--8--8--8--8--8--8--8--8----8--8--8--8--8--8---7-7-7-7-7---------------|
B|-10-10-10-10-10-10-10-10-10-10-10-10-10---8--8--8--8--8--8---8-8-8-8-8---------------|
G|-9--9--9--9--9--9--9--9--9--9--9--9--9----9--9--9--9--9--9---9-9-9-9-9---------------|
D|-10-10-10-10-10-10-10-10-10-10-10-10-10---10-10-10-10-10-10--9-9-9-9-9---------------| x7
A|-------------------------------------------------------------------------------------|
E|-------------------------------------------------------------------------------------|


Guitar 2    Play as many times as in song
e|-------------------------------------------------------------------------------------|
B|--------------------15h17p15---------------------15h17p15----------------------------|
G|---------16h17p16-14--------14--------16h17p16-14--------14----------16h17p16-14-----|
D|-------14---------------------14h15-14----------------------14h15-14-----------------|
A|-------------------------------------------------------------------------------------|
E|-------------------------------------------------------------------------------------|

e|-------------------------------------------------------------------------------------|
B|-15h17p15----------------------------15h17-15b17-------------------------------------|
G|---------14--------------16h17p16-14-------------------------------------------------|
D|------------14b15p14-----------------------------------------------------------------|
A|---------------------17--------------------------------------------------------------|
E|-------------------------------------------------------------------------------------|

Bridge
Sorry cbf. maybe later lol

Outro
e|-------------------------------------------------------------------------------------|
B|-------------------------------------------------------------------------------------|
G|---------------------------------------------14-16-----------------------------------|
D|-12/14-14-14-14-------------------12-12b14---------17b19p17--------17h19-------------|
A|----------------17-17-15-15-12-15----------------------------17h19-------17b19p17----|
E|-------------------------------------------------------------------------------------|

e|-------------------------12----13/15-13-12h13p12h13p12h13p12h13p12h13p12-------------|
B|-------------13-12-15-13----15-------------------------------------------------------|
G|-------12-14-------------------------------------------------------------------------|
D|-12/14-------------------------------------------------------------------------------|
A|-------------------------------------------------------------------------------------|
E|-------------------------------------------------------------------------------------| 
            
Submit corrections


        Evie  lessons Hard to play? Try these video lessons and learn fast Evie  lessons
        
↑ Back to top | Tablatures and chords for acoustic guitar and electric guitar, ukulele, drums are parodies/interpretations of the original songs. You may use it for private study, scholarship, research or language learning purposes only