» » »

Lars Frederiksen And The Bastards - Campbell, Ca Bass

Artists:  A B C D E F G H I J K L M N O P Q R S T U V W X Y Z # 

Campbell, Ca Bass

(ver. 1) Click to play this song!
Lars Frederiksen And The Bastards
 Rating:
4/5 (4 votes)


 Campbell, Ca lessons Tabs too difficult? Try these video lessons and learn fast
 
                LARS FREDERIKSEN & THE BASTARDS - CAMPBELL, CA
LARS FREDERIKSEN & THE BASTARDS: 2001
TUNING: STANDARD E.A.D.G


INTRO: X 2

G:|----------------------|
D:|5-4-3-221-------------|
A:|---------5-4-3-2------|
E:|-----------------44-3-|

3RD TIME: THE STRUMMING IS HARD TO MAKE OUT HERE.
G:|----------------------|
D:|5-5-5-555555-5-5------|
A:|----------------------|
E:|-----------------44-3-|

4TH TIME:
G:|----------------------|
D:|5-4-3-221-------------|
A:|---------5-4-3-2------|
E:|-----------------44-3-|


VERSE: X 3

G:|------------------------------------|
D:|------------------------------------|
A:|------------------3-333333----------|
E:|3-333333-1-111111----------3-333333-|


CHORUS: X 2

G:|------------------------------------|
D:|------------------------------------|
A:|---------3-333333-----------------3-|
E:|1-111111----------3-333333-1--------|


VERSE: X 3

G:|------------------------------------|
D:|------------------------------------|
A:|------------------3-333333----------|
E:|3-333333-1-111111----------3-333333-|


CHORUS: X 2

G:|------------------------------------|
D:|------------------------------------|
A:|---------3-333333-----------------3-|
E:|1-111111----------3-333333-1--------|


GAP: X 4

G:|----------------------|
D:|5-4-3-221-------------|
A:|---------5-4-3-2------|
E:|-----------------44-3-|

3RD TIME:
G:|----------------------|
D:|5-5-5-555555-5-5------|
A:|----------------------|
E:|-----------------44-3-|

4TH TIME:
G:|----------------------|
D:|5-4-3-221-------------|
A:|---------5-4-3-2------|
E:|-----------------44-3-|


BRIDGE: PART 1 X 4

G:|------------------------------------|
D:|------------------------------------|
A:|------------------3-333333----------|
E:|3-333333-1-111111----------3-333333-|

BRIDGE: PART 2

G:|------------------------------------------------------------------------|
D:|------------------------------------------------------------------------|
A:|------------------33333333----------22222222----------33333333-22222222-|
E:|33333333-11111111----------33333333----------55555555-------------------|


G:|44444444-22222222-55555555-44444444-|
D:|------------------------------------|
A:|------------------------------------|
E:|------------------------------------|

GUITAR ON ITS OWN


CHORUS: X 2

G:|------------------------------------|
D:|------------------------------------|
A:|---------3-333333-----------------3-|
E:|1-111111----------3-333333-1--------|


ENDING: X 4

G:|----------------------|
D:|5-4-3-221-------------|
A:|---------5-4-3-2------|
E:|-----------------44-3-|

3RD TIME:
G:|----------------------|
D:|5-5-5-555555-5-5------|
A:|----------------------|
E:|-----------------44-3-|

4TH TIME:
G:|----------------------|
D:|5-4-3-221-------------|
A:|---------5-4-3-2------|
E:|-----------------44-3-|

THATS IT. I COULDNT FIND THIS TABBED ANYWHERE SO I SAT DOWN AND DID IT, HOPE YOU ENJOY, 
ABOUT TIME THIS IS UP. CHEERS!!!
            
Submit corrections



        Campbell, Ca lessons Hard to play? Try these video lessons and learn fast Campbell, Ca lessons
        
↑ Back to top | Tablatures and chords for acoustic guitar and electric guitar, ukulele, drums are parodies/interpretations of the original songs. You may use it for private study, scholarship, research or language learning purposes only