» » »

Larc En Ciel - Twinkle Twinkle Tabs

Artists:  A B C D E F G H I J K L M N O P Q R S T U V W X Y Z # 

Twinkle Twinkle Tabs

(ver. 1) Click to play this song!
Larc En Ciel
 Rating:
4/5 (4 votes)

 Twinkle Twinkle lessons Tabs too difficult? Try these video lessons and learn fast
 
                Band: L'Arc~en~Ciel
Words and music: Ken
Albúm: Awake

Intro

     A                             F#m
E||-----------------------------|-----------------------------|
B||------2--0-2--3--2--0--2-2-2-|------2--0-2--3--2--0--2-2-2-|
G||------2--2-2--2--2--2--2-2-2-|------2--2-2--2--2--2--2-2-2-|
D||--2-2-2--2-2--2--2--2--2-2-2-|------4--4-4--4--4--4--4-4-4-|
A||--0-0------------------------|-----------------------------|
E||--0-0------------------------|--2-2------------------------|


  E                             D
-----------------------------|--------------------------------|
------2--0-2--3--2--0--0-0-2-|--3-----3-----3--3-----3-----3--|     *2 times
------1--1-1--1--1--1--1-1-1-|--2-----2-----2--2-----2-----2--|
--2-2-2--2-2--2--2--2--2-2-2-|--0-0-0-0-0-0-0--0-0-0-0-0-0-0--|
--2-2-2--2-2--2--2--2--2-2-2-|--------------------------------|
--0-0------------------------|--------------------------------|

Verse 1
A              E            F#m                   D
Yume wa hakanaki yume wa mada sono me ni netsu wo tsutaete iru no?
A               E             F#m            D
Sora ni kono te wo ima sora e todokanai mama kazash*te miyou

Verse 2
E            F#m               G           E
Hateta mi wo kabau sube wa mou soko e umete

Chorus
* yeah
(riff 1)        D             E     C#m    F#m
Nagarete yuku hoshi no namida wo kazoenagara
  Bm        E      G
Yureru toki wo watatte
(riff 1)          D             E    C#m       F#m
Kimi no soba de boku no me no mae ni sarasaredash*ta
  Bm         E  (Solo 1)
Subete no ai de lost yourself in happiness


Changing, nothing gonna changing.
Samayoi meguru kisetsu ni madowasarete
Sugaru kono chi ga ima sugaru mono ni mi wo yudanete miyou

Hateta mi wa yagate sora e mukau darou

* Chorus

Verse 3 (Same chords of the intro)
Get it on! get it on! get it on!
Nothing to fear

Solo 2

Chorus 2
Yeah
Koborete yuku hoshi no namida wa kiete yuku kedo
Hora mata hitotsu umare kuru
Kimi no soba de boku no kokoro ni ima kizamikomu
Subete no ai de lost yourself in happiness

Get it on! get it on! get it on!
Nothing to fear (Solo 1)
Get it on! get it on! get it on!
Nothing to fear

A5 (To end the song)


Riff 1 (Previous to chorus)

|--------------------------------------|
|--------------------------------------|
|----------------------11-11-9-9-7-7-6-|
|--------------------------------------|
|-----------------------9--9-7-7-5-5-4-|
|--------------------------------------|

Solo 1

With fade the first note
                >
|---------------16--17-16----|
|-------------------------17-|
|----------------------------|
|----------------------------|
|----------------------------|
|----------------------------|


------------------16--17-16----|----------21-----------21-21-21-|
--17---14~------------------17-|--17S-19------------------------|
-------------------------------|--------------------------------|
-------------------------------|--------------------------------|
-------------------------------|--------------------------------|
-------------------------------|--------------------------------|


               |---3---|              |---3---|        |--3--|  |--3------|
--21-19-17-19-17h-19p-17-16-17-19-17-16h-17p-16----16-17-19----16---------|
------------------------------------------------19----------17-------17---|
------------------------------------------------------------------19------|
--------------------------------------------------------------------------|
--------------------------------------------------------------------------|
--------------------------------------------------------------------------|

----------------------|
--19~-----------------|
----------------------|
----------------------|
----------------------|
----------------------|


Solo 2

|------------------------------------|
|------------------------------17----|
|---------------14----14----16----16-|
|-----------/14----16----18----------|
|------------------------------------|
|------------------------------------|

-------------5S-17--17-16-16-16-------|
------14-14---------------------17-17-|
--16----------------------------------|
--------------------------------------|
--------------------------------------|
--------------------------------------|

--14S-(16)--------12-12-------------------|
-----------14--12-------------------------|
-------------------------14-14---14-14-14-|
------------------------------------------|
------------------------------------------|
------------------------------------------|


                          |---3--------|
---------------------------------------|
---------------------------------------|
--14-16-14-14--13----L-----------------|
-------------------------14--16--18----|
---------------------------------------|
---------------------------------------|


------------------------------------------------|
------------------------------------------15-14-|
------------------------13----14-13-16-14-------|
--18---19p-18p-16~---14----16-------------------|
------------------------------------------------|
------------------------------------------------|

--17p-16----16p-14----17p-16----16p-14----17p-16----17p-16----16p-14----17p-16---|
---------17--------14--------17--------14--------17--------17--------14--------1-|
---------------------------------------------------------------------------------|
---------------------------------------------------------------------------------|
---------------------------------------------------------------------------------|
---------------------------------------------------------------------------------|

--16p-14----16p-12----16p-14----16p-12----16p-14----16p-14----16p-12-------------|
---------14--------14--------14--------14--------14--------14--------14-------14-|
------------------------------------------------------------------------14-16----|
---------------------------------------------------------------------------------|
---------------------------------------------------------------------------------|
---------------------------------------------------------------------------------|

--19b--19-17-16-17-----------------------------|
-----------------------------------------------|
---------------------14-13-14------------------|
-------------------------------14\--7-9-7-6-7--|
-----------------------------------------------|
-----------------------------------------------|


Santiago Chile - 2007

I have the guitar pro version (make be me) but is incomplete and don't look good xD... / 
el tab de guitar pro (hecho por mi) pero esta incompleto y no suena muy bien, en cuanto 
que faltan partes en bateria o bajo...

Thank to/agradecimientos a:

para compartir mis archivos y experiencias
- Esteban Diaz (IDK), he arranged my guitar xD / el arreglo mi guitarra
- My friends (home, college, internet, others) for the motivation / Mis amigos, por la 
que me entregan

I will upload more songs... Estare subiendo más canciones...

Felipe Rojas Cárdenas - Santiago Chile 2007
            
Submit corrections


        Twinkle Twinkle lessons Hard to play? Try these video lessons and learn fast Twinkle Twinkle lessons
        
↑ Back to top | Tablatures and chords for acoustic guitar and electric guitar, ukulele, drums are parodies/interpretations of the original songs. You may use it for private study, scholarship, research or language learning purposes only