» » »

Lana Del Rey - Summer Bummer Tabs

Artists:  A B C D E F G H I J K L M N O P Q R S T U V W X Y Z # 

Summer Bummer Tabs

(ver. 1) Click to play this song!
Lana Del Rey
 Rating:
4.3/5 (22 votes)


 Summer Bummer  lessons Tabs too difficult? Try these video lessons and learn fast
 
                [Verse]

e|----------------|----------------|----------------|----------------|
B|----------------|----------------|----------------|----------------|
G|----------------|----------------|----------------|----------------|
D|8-------8-------|6-------6-------|6-------6-------|4-------4---6---| x3
A|9-------9-------|8-------8-------|7-------7-------|6-------6---8---|
E|--6-7-6---6-7-6-|--6-7-6---6-7-6-|--6-7-6---6-7-6-|--6-7-6---6---6-|

[Chorus]

e|----------------|----------------|----------------|----------------|
B|----------------|----------------|----------------|----------------|
G|----------------|----------------|----------------|----------------|
D|8-------8-------|6-------6-------|6-------6-------|4-------4---6---| x2
A|9-------9-------|8-------8-------|7-------7-------|6-------6---8---|
E|--6-7-6---6-7-6-|--6-7-6---6-7-6-|--6-7-6---6-7-6-|--6-7-6---6---6-|

[Verse]

e|----------------|----------------|----------------|----------------|
B|----------------|----------------|----------------|----------------|
G|----------------|----------------|----------------|----------------|
D|8-------8-------|6-------6-------|6-------6-------|4-------4---6---| x3
A|9-------9-------|8-------8-------|7-------7-------|6-------6---8---|
E|--6-7-6---6-7-6-|--6-7-6---6-7-6-|--6-7-6---6-7-6-|--6-7-6---6---6-|

e|----------------|----------------|----------------|----------------|
B|----------------|----------------|----------------|----------------|
G|----------------|----------------|----------------|----------------|
D|8-------8-------|6-------6-------|6-------6-------|--------4---6---|
A|9-------9-------|8-------8-------|7-------7-------|--------6---8---|
E|--6-7-6---6-7-6-|--6-7-6---6-7-6-|----7-6---6-7-6-|--6-7-6---6-----|

[Chorus]

e|----------------|----------------|----------------|----------------|
B|----------------|----------------|----------------|----------------|
G|----------------|----------------|----------------|----------------|
D|8-------8-------|6-------6-------|6-------6-------|4-------4---6---| x2
A|9-------9-------|8-------8-------|7-------7-------|6-------6---8---|
E|--6-7-6---6-7-6-|--6-7-6---6-7-6-|--6-7-6---6-7-6-|--6-7-6---6---6-|

[Verse]

e|----------------|----------------|----------------|----------------|
B|----------------|----------------|----------------|----------------|
G|----------------|----------------|----------------|----------------|
D|8-------8-------|6-------6-------|6-------6-------|4-------4---6---| x2
A|9-------9-------|8-------8-------|7-------7-------|6-------6---8---|
E|--6-7-6---6-7-6-|--6-7-6---6-7-6-|--6-7-6---6-7-6-|--6-7-6---6---6-|

[Bridge]

Rest eight bars.

[Chorus]

e|----------------|----------------|----------------|----------------|
B|----------------|----------------|----------------|----------------|
G|----------------|----------------|----------------|----------------|
D|8-------8-------|6-------6-------|6-------6-------|4-------4---6---| x2
A|9-------9-------|8-------8-------|7-------7-------|6-------6---8---|
E|--6-7-6---6-7-6-|--6-7-6---6-7-6-|--6-7-6---6-7-6-|--6-7-6---6---6-|

[Outro]

e|6-----6-6-------|6-----6-6-------|6-----6-6-------|6-----6-6-------|
B|--7-6-----7-6-9-|--7-6-----7-6-9-|--7-6-----7-6-9-|--7-6-----7-6-9-|
G|----------------|----------------|----------------|----------------|
D|----------------|----------------|----------------|----------------| x2
A|----------------|----------------|----------------|----------------|
E|----------------|----------------|----------------|----------------|            
Submit corrections



        Summer Bummer  lessons Hard to play? Try these video lessons and learn fast Summer Bummer  lessons
        
↑ Back to top | Tablatures and chords for acoustic guitar and electric guitar, ukulele, drums are parodies/interpretations of the original songs. You may use it for private study, scholarship, research or language learning purposes only