Home » L » Lana Del Rey »

Lana Del Rey - Shades Of Cool Tabs

Artists:  A B C D E F G H I J K L M N O P Q R S T U V W X Y Z # 

Shades Of Cool Tabs

(ver. 1) Click to play this song!
Lana Del Rey
[Intro]
 
E|--------0--------0--------0---------0----------0---------0--------0--------0---|
B|-----3--------3--------3--------3----------3---------3---------3--------3------|
G|--2--------2--------3--------3----------4--------4----------3--------3---------|
D|-------------------------------------------------------------------------------|    x2
A|-------------------------------------------------------------------------------|
E|-------------------------------------------------------------------------------|
 
[Verse]
 
E|--------0--------0--------0---------0----------0---------0--------0--------0---|
B|-----3--------3--------3--------3----------3---------3---------3--------3------|
G|--2--------2--------3--------3----------4--------3----------2--------2---------|
D|-------------------------------------------------------------------------------|    x2
A|-------------------------------------------------------------------------------|
E|-------------------------------------------------------------------------------|
My baby lives in shades of blue, blue eyes and jazz and attitude
He lives in California too, he drives a Chevy Malibu
 
E|---3---------------3----(5)--(6)-----------0----------0----------0----------0--|
B|---3---------------3--------------------3----------3----------3----------3-----|
G|---4---------------3----------------2----------2----------2----------2---------|
D|---5---------------5-----------------------------------------------------------|    x2
A|-------------------------------------------------------------------------------|
E|-------------------------------------------------------------------------------|
And when he calls, he calls for me and not for you
He lives for love, he loves his drugs, he loves his baby too
 
[Pre Chorus]
 
E|---5-------------------5------------------5-----------------5------------------|
B|---3-------------------5------------------3-----------------5------------------|
G|---3-------------------5------------------3-----------------5------------------|
D|---3-------------------5------------------3-----------------5------------------|
A|-------------------------------------------------------------------------------|
E|-------------------------------------------------------------------------------|
But I can't fix him, can't make him better, and I can't do nothing about his strange weather
 
[Chorus]
 
E|---1-------3-----------------------1-------3------------------------------------|
B|---1-------4-------6-------5-------1-------4------6-------5---------------------|
G|---2-------3-------7-------5-------2-------3------7-------5---------------------|
D|---3-------5-------7-------5-------3-------5------7-------5---------------------|
A|---3-------3-------x-------3-------3-------3------x-------3---------------------|
E|---1---------------6---------------1--------------6-----------------------------|
But you are invincible, I can't break through your world
'Cause you live in shades of cool, your heart is unbreakable
 
[Verse]
 
E|--------0--------0--------0---------0----------0---------0--------0--------0---|
B|-----3--------3--------3--------3----------3---------3---------3--------3------|
G|--2--------2--------3--------3----------4--------3----------2--------2---------|
D|-------------------------------------------------------------------------------|    x2
A|-------------------------------------------------------------------------------|
E|-------------------------------------------------------------------------------|
My baby lives in shades of cold, cold heart and hands and aptitude
He lives for love, for women too, I'm one of many, peonies blue
 
E|---3---------------3----(5)--(6)-----------0----------0----------0----------0--|
B|---3---------------3--------------------3----------3----------3----------3-----|
G|---4---------------3----------------2----------2----------2----------2---------|
D|---5---------------5-----------------------------------------------------------|    x2
A|-------------------------------------------------------------------------------|
E|-------------------------------------------------------------------------------|
And when he calls, he calls for me and not for you
He prays for love, he prays for peace, and maybe someone new
 
[Pre Chorus]
 
E|---5-------------------5------------------5-----------------5------------------|
B|---3-------------------5------------------3-----------------5------------------|
G|---3-------------------5------------------3-----------------5------------------|
D|---3-------------------5------------------3-----------------5------------------|
A|-------------------------------------------------------------------------------|
E|-------------------------------------------------------------------------------|
But I can't help him, can't make him better, and I can't do nothing about his strange weather
 
[Chorus]
 
E|---1-------3-----------------------1-------3------------------------------------|
B|---1-------4-------6-------5-------1-------4------6-------5---------------------|
G|---2-------3-------7-------5-------2-------3------7-------5---------------------|
D|---3-------5-------7-------5-------3-------5------7-------5---------------------|
A|---3-------3-------x-------3-------3-------3------x-------3---------------------|
E|---1---------------6---------------1--------------6-----------------------------|
But you are invincible, I can't break through your world
'Cause you live in shades of cool, your heart is unbreakable
 
[Bridge]
 
e|-----------------------------------------------------------------------------|
B|-----------------10----------------------------------------------------10--13|
G|---------10--12---------------------10------12/14--12--10--12--10--12--------|
D|12----12-------------12-----10--12------12-----------------------------------|
A|-------------------------12--------------------------------------------------|
E|-----------------------------------------------------------------------------|
 
e|-----------------------------------------------------------------------------|
B|-15b17--15------------------------------------------------10--13--13--13--13-|
G|-----------14--14-----10--12b14--12--10-12-10----------10/-------------------|
D|-------------------12-------------------------12-10-12-----------------------|
A|-----------------------------------------------------------------------------|
E|-----------------------------------------------------------------------------|
 
e|-----------------------------------13b15--15--15--15b17--17--17--17b19--17---|
B|-13b15--15--15--15--15b18--18--18--------------------------------------------|
G|-----------------------------------------------------------------------------|
D|-----------------------------------------------------------------------------|
A|-----------------------------------------------------------------------------|
E|-----------------------------------------------------------------------------|
 
e|-15--------------------------------------------------------------------------|
B|-----17--15--13-----13--14b16--14--------------------------------------------|
G|----------------14-----------------------------------------------------------|
D|-----------------------------------------------------------------------------|
A|-----------------------------------------------------------------------------|
E|-----------------------------------------------------------------------------|
 
Your hot, hot weather in the summer, hot, hot, neglectful lover
Hot, hot weather in the summer, high, neglectful lover
You're crumbling, sadly, you're crumbling, sadly
 
[Chorus]
 
E|---1-------3-----------------------1-------3------------------------------------|
B|---1-------4-------6-------5-------1-------4------6-------5---------------------|
G|---2-------3-------7-------5-------2-------3------7-------5---------------------|
D|---3-------5-------7-------5-------3-------5------7-------5---------------------|
A|---3-------3-------x-------3-------3-------3------x-------3---------------------|
E|---1---------------6---------------1--------------6-----------------------------|
But you are invincible, I can't break through your world
'Cause you live in shades of cool, your heart is unbreakable
 
[Outro]
 
E|---1-------3--------------------------------------------------------------------|
B|---1-------4-------6------------------------------------------------------------|
G|---2-------3-------7------------------------------------------------------------|
D|---3-------5-------7------------------------------------------------------------|
A|---3-------3-------x------------------------------------------------------------|
E|---1---------------6------------------------------------------------------------|
            
Submit corrections

↑ Back to top | Tablatures and chords for acoustic guitar and electric guitar, ukulele, drums are parodies/interpretations of the original songs. You may use it for private study, scholarship, research or language learning purposes only