Home » L » Lana Del Rey »

Lana Del Rey - Pretty When You Cry Tabs

Artists:  A B C D E F G H I J K L M N O P Q R S T U V W X Y Z # 

Pretty When You Cry Tabs

(ver. 1) Click to play this song!
Lana Del Rey

e|--------------------------------------------------------|
B|--------------------------------------------------------|
G|---21b----21b----21b--21b--21b-21b-----21b------21b--20~|
D|--------------------------------------------------------|
A|--------------------------------------------------------|
E|--------------------------------------------------------|

e|----------------------------------------------------|
B|----------------------------------------------------|
G|--14b--14b---14b---14b-------10---------8~----------|
D|----------------------------------------------------|
A|----------------------------------------------------|
E|----------------------------------------------------|

e|------------------------------------------------------------------------------------------------|
B|-------------------------------------------------------21b-----21b-----21b-----21b-----21b------|
G|---6--8--10~-10~-10~-10~---13--15~----15--13~------21b-----21b-----21b-----21b-----21b-----21b--|
D|------------------------------------------------------------------------------------------------|
A|------------------------------------------------------------------------------------------------|
E|------------------------------------------------------------------------------------------------|
            
Submit corrections

↑ Back to top | Tablatures and chords for acoustic guitar and electric guitar, ukulele, drums are parodies/interpretations of the original songs. You may use it for private study, scholarship, research or language learning purposes only