Home » L » Lana Del Rey »

Lana Del Rey - Is This Happiness Tabs

Artists:  A B C D E F G H I J K L M N O P Q R S T U V W X Y Z # 

Is This Happiness Tabs

(ver. 1) Click to play this song!
Lana Del Rey



INTRO/VERSE 1:
e|--------------3-----5-----2-----3-----------------|
B|--------3-----------------------------5-----3-----|
G|-----4-----4-----4-----4-----4-----------4-----4--|
D|--------------------------2-----------------------|
A|--------------------------------------------------|
E|--3-----------------------------------------------|

e|--------------3-----5-----2-----3--------------3--|
B|--------3-----------------------------5-----3-----|
G|-----------4-----4-----4-----0-----0-----4--------|
D|--------------------------2-----------------------|
A|--------------------------------------------------|
E|--3-----------------------------------------------|

e|--------------3-----------3-----------3-----------|
B|--------3-----------3-----------5-----------5-----|
G|-----4-----4-----4-----4-----0-----0-----0-----0--|
D|--------------------------2-----------------------|
A|--------------------------------------------------|
E|--3-----------------------------------------------|

e|--------------3-----------------------------------|
B|--------3-----------3-----------0-----5-----0-----|
G|-----4-----4-----4-----4-----0-----0-----0-----0--|
D|--------------------------2-----------------------|
A|--------------------------------------------------|
E|--3-----------------------------------------------|

e|--------------------------------------------------|
B|--------3-----------3-----------0-----------0-----|
G|-----4-----4-----4-----4-----0-----0-----0-----0--|
D|--------------------------2-----------2-----------|
A|--------------------------------------------------|
E|--3-----------3-----------------------------------|

e|--------------------------------------------------|
B|--------3-----------3-----5-----0-----------0-----|
G|-----4-----4-----4-----4-----0-----0-----0-----0--|
D|--------------------------2-----------2-----------|
A|--------------------------------------------------|
E|--3-----------3-----------------------------------|


VERSE 1 BRIDGE:
e|--------0-----3-----0-----------2-----5-----2-----|
B|-----1-----1-----1-----1-----3-----3-----3-----3--|
G|--------------------------------------------------|
D|--------------------------0-----------------------|
A|--3-----------------------------------------------|
E|--------------------------------------------------|

e|--------0-----3-----0-----------2-----5-----2-----|
B|-----1-----1-----1-----1-----3-----3-----3-----3--|
G|--------------------------------------------------|
D|--------------------------0-----------0-----------|
A|--3-----------3-----------------------------------|
E|--------------------------------------------------|

e|--3-----0-----3-----0-----5-----2-----5-----2-----|
B|-----1-----1-----1-----1-----3-----3-----3-----3--|
G|--------------------------------------------------|
D|--------------------------0-----------0-----------|
A|--3-----------3-----------------------------------|
E|--------------------------------------------------|

e|--3-----0-----3-----0-----5-----2-----5-----2-----|
B|-----1-----1-----1-----1-----3-----3-----3-----3--|
G|--------------------------------------------------|
D|--------------------------0-----------0-----------|
A|--3-----------------------------------------------|
E|--------------------------------------------------|


CHORUS: Repeat x 4
e|--------------3-----------------------3-----------|
B|--------3-----------3-----------5-----------5-----|
G|-----4-----4-----4-----4-----4-----4-----4-----4--|
D|--------------------------2-----------------------|
A|--------------------------------------------------|
E|--3-----------------------------------------------|


VERSE 2:
e|--------------------------------------------------|
B|--------3-----------3-----------0-----------0-----|
G|-----4-----4-----4-----4-----0-----0-----0-----0--|
D|--------------------------2-----------2-----------|
A|--------------------------------------------------|
E|--3-----------3-----------------------------------|

e|--------------------------------------------------|
B|--------3-----------3-----------0-----------0-----|
G|-----4-----4-----4-----4-----0-----0-----0-----0--|
D|--------------------------2-----------2-----------|
A|--------------------------------------------------|
E|--3-----------3-----------------------------------|

e|--------------------------------------------------|
B|--------3-----------3-----------0-----------0-----|
G|-----4-----4-----4-----4-----0-----0-----0-----0--|
D|--------------------------2-----------2-----------|
A|--------------------------------------------------|
E|--3-----------3-----------------------------------|

e|--------------------------0-----------0-----------|
B|--------3-----------3-----------0-----------0-----|
G|-----4-----4-----4-----4-----0-----0-----0-----0--|
D|--------------------------2-----------2-----------|
A|--------------------------------------------------|
E|--3-----------3-----------------------------------|


VERSE 2 BRIDGE: Repeat x 4
e|--0-----------0-----------2-----------2-----------|
B|--------1-----------1-----------3-----------3-----|
G|-----0-----0-----0-----0-----2-----2-----2-----2--|
D|--------------------------0-----------0-----------|
A|--3-----------3-----------------------------------|
E|--------------------------------------------------|


CHORUS: Repeat x 4
e|--------------3-----------------------3-----------|
B|--------3-----------3-----------5-----------5-----|
G|-----4-----4-----4-----4-----4-----4-----4-----4--|
D|--------------------------2-----------------------|
A|--------------------------------------------------|
E|--3-----------------------------------------------|


BRIDGE:
e|--------2-----------2-----------0-----------0-----|
B|--3-----------3-----------1-----------1-----------|
G|-----4-----4-----4-----4-----2-----2-----2-----2--|
D|--------------------------------------------------|
A|--2-----------2-----------0-----------0-----------|
E|--------------------------------------------------|

e|--------2-----------2-----------0-----------0-----|
B|--3-----------3-----------1-----------1-----------|
G|-----4-----4-----4-----4-----2-----2-----2-----2--|
D|--------------------------------------------------|
A|--2-----------2-----------0-----------0-----------|
E|--------------------------------------------------|

e|--------------------------------------------------|
B|--3-----------3-----------1-----------1-----------|
G|-----0--2--0-----0--2--0--------0-----------0-----|
D|-----------------------------3-----3-----3-----3--|
A|--------------------------------------------------|
E|--3-----------3-----------1-----------1-----------|

e|--------------------------------------------------|
B|--0-----------0-----------------------------------|
G|--------0-----------0-----2-----------2-----------|
D|-----2-----2-----2-----2--------4-----------4-----|
A|--------------------------5--5-----5-----5--------|
E|--0-----------0-----------------------------------|

CHORUS: Repeat x 8
e|--------------3-----------------------3-----------|
B|--------3-----------3-----------5-----------5-----|
G|-----4-----4-----4-----4-----4-----4-----4-----4--|
D|--------------------------2-----------------------|
A|--------------------------------------------------|
E|--3-----------------------------------------------|

OUTRO: (SAME AS BRIDGE)
e|--------2-----------2-----------0-----------0-----|
B|--3-----------3-----------1-----------1-----------|
G|-----4-----4-----4-----4-----2-----2-----2-----2--|
D|--------------------------------------------------|
A|--2-----------2-----------0-----------0-----------|
E|--------------------------------------------------|

e|--------2-----------2-----------0-----------0-----|
B|--3-----------3-----------1-----------1-----------|
G|-----4-----4-----4-----4-----2-----2-----2-----2--|
D|--------------------------------------------------|
A|--2-----------2-----------0-----------0-----------|
E|--------------------------------------------------|

e|--------------------------------------------------|
B|--3-----------3-----------1-----------1-----------|
G|-----0--2--0-----0--2--0--------0-----------0-----|
D|-----------------------------3-----3-----3-----3--|
A|--------------------------------------------------|
E|--3-----------3-----------1-----------1-----------|

e|--------------------------------------------------|
B|--0-----------0-----------------------------------|
G|--------0-----------0-----2-----------2-----------|
D|-----2-----2-----2-----2--------4-----------4-----|
A|--------------------------5--5-----5-----5--------|
E|--0-----------0-----------------------------------|
            
Submit corrections

↑ Back to top | Tablatures and chords for acoustic guitar and electric guitar, ukulele, drums are parodies/interpretations of the original songs. You may use it for private study, scholarship, research or language learning purposes only