Home » L » Lana Del Rey »

Lana Del Rey - Disco Tabs

Artists:  A B C D E F G H I J K L M N O P Q R S T U V W X Y Z # 

Disco Tabs

(ver. 1) Click to play this song!
Lana Del Rey
[Verses] 

e|----------------0----0--------------0----0------------|
B|------0----0---(0)--(0)---0----0---(0)--(0)-----------|
G|------------------------------------------------------|   continue till the pre-chorus comes in
D|------------------------------------------------------|
A|----2----2----0----0----2----2----0----0--------------|
E|------------------------------------------------------|


[Pre-chorus] "I know what I like..."

e|------------------------------------------------------|
B|-----0----0----0----0----0----0----0----0-------------|
G|------------------------------------------------------|
D|------------------------------------------------------|
A|------------------------------------------------------|
E|---3----3----2----2----3----3----2----2---------------|

Last line :

e|------------------------------------------------------|
B|-----0---0---2---2------------------------------------|
G|------------------------------------------------------|
D|------------------------------------------------------|
A|------------------------------------------------------|
E|---3---3---2---2--------------------------------------|


[Chorus] "I am my only god..."

e|---------------------0--------------------0-----------|
B|-----0----2----0----(0)---0----2----0----(0)----------|
G|------------------------------------------------------|
D|------------------------------------------------------|
A|-------------2----0---------------2----0--------------|
E|---0----2---------------0----2------------------------|

[Last line] "Now..."

e|------------------------------------------------------|
B|-----0----0----2----2---------------------------------|
G|------------------------------------------------------|
D|------------------------------------------------------|
A|------------------------------------------------------|
E|---0----0----2----2-----------------------------------|


Alternatively, you may want to use the E chord to get all the A chord notes in the verses and chorus, 
it might sound better/more coherent. 

Here :

[Verses] 

e|----------------0----0--------------0----0------------|
B|------0----0---(0)--(0)---0----0---(0)--(0)-----------|
G|------------------------------------------------------| 
D|------------------------------------------------------|
A|------------------------------------------------------|
E|----7----7----5----5----7----7----5----5--------------|


[Chorus] 

e|---------------------0--------------------0-----------|
B|-----0----2----0----(0)---0----2----0----(0)----------|
G|------------------------------------------------------|
D|------------------------------------------------------|
A|------------------------------------------------------|
E|---0----2----7----5-----0----2----7----5--------------|            
Submit corrections

↑ Back to top | Tablatures and chords for acoustic guitar and electric guitar, ukulele, drums are parodies/interpretations of the original songs. You may use it for private study, scholarship, research or language learning purposes only