Home » L » Lana Del Rey »

Lana Del Rey - Bel Air Tabs

Artists:  A B C D E F G H I J K L M N O P Q R S T U V W X Y Z # 

Bel Air Tabs

(ver. 1) Click to play this song!
Lana Del Rey
[Intro]

Guitar 2:

E|--12p10--8h10--12--12p10--8h10--12--15p14--12h14--15--15p14--12h14--15--17--|
B|----------------------------------------------------------------------------|
G|----------------------------------------------------------------------------|
D|----------------------------------------------------------------------------|
A|----------------------------------------------------------------------------|
E|----------------------------------------------------------------------------|

E|--12p10--8h10--12--12p10--8h10--12--15p14--12h14--15--15p14--12h14--13p12--10h12--13p12--10h12--13--|
B|----------------------------------------------------------------------------------------------------|
G|----------------------------------------------------------------------------------------------------|
D|----------------------------------------------------------------------------------------------------|
A|----------------------------------------------------------------------------------------------------|
E|----------------------------------------------------------------------------------------------------|

E|--16p15--13h15--16--18--16--15--|
B|--------------------------------|
G|--------------------------------|
D|--------------------------------|
A|--------------------------------|
E|--------------------------------|


[Verse]
 
Guitar 1:
                C          Em          C           Em          Dm              Fm
E|-------------------------------------------------------------------------------------|
B|--------------5-----------8-----------5-----------8-----------6--5--6-------------9--|
G|-----------5-----------9-----------5-----------9-----------7------------------10-----|  
D|--------5-----------9-----------5-----------9-----------7-----------------10---------|
A|-----3-----------7-----------3-----------7-----------5-----------------8-------------|
E|-------------------------------------------------------------------------------------|

Guitar 2: 

E|--12p10--8h10--12--12p10--8h10--12--15p14--12h14--15--15p14--12h14--15--17--|
B|----------------------------------------------------------------------------|
G|----------------------------------------------------------------------------|
D|----------------------------------------------------------------------------|
A|----------------------------------------------------------------------------|
E|----------------------------------------------------------------------------|

E|--12p10--8h10--12--12p10--8h10--12--15p14--12h14--15--15p14--12h14--13p12--10h12--13p12--10h12--13--|
B|----------------------------------------------------------------------------------------------------|
G|----------------------------------------------------------------------------------------------------|
D|----------------------------------------------------------------------------------------------------|
A|----------------------------------------------------------------------------------------------------|
E|----------------------------------------------------------------------------------------------------|

E|--16p15--13h15--16--18--16--15--|
B|--------------------------------|
G|--------------------------------|
D|--------------------------------|
A|--------------------------------|
E|--------------------------------|


Guitar 1:
                C          Em          C           Em          Dm              Fm
E|-------------------------------------------------------------------------------------|
B|--------------5-----------8-----------5-----------8-----------6--5--6-------------9--|
G|-----------5-----------9-----------5-----------9-----------7------------------10-----|  
D|--------5-----------9-----------5-----------9-----------7-----------------10---------|
A|-----3-----------7-----------3-----------7-----------5-----------------8-------------|
E|-------------------------------------------------------------------------------------|

Guitar 2: 

E|--12p10--8h10--12--12p10--8h10--12--15p14--12h14--15--15p14--12h14--15--17--|
B|----------------------------------------------------------------------------|
G|----------------------------------------------------------------------------|
D|----------------------------------------------------------------------------|
A|----------------------------------------------------------------------------|
E|----------------------------------------------------------------------------|

E|--12p10--8h10--12--12p10--8h10--12--15p14--12h14--15--15p14--12h14--13p12--10h12--13p12--10h12--13--|
B|----------------------------------------------------------------------------------------------------|
G|----------------------------------------------------------------------------------------------------|
D|----------------------------------------------------------------------------------------------------|
A|----------------------------------------------------------------------------------------------------|
E|----------------------------------------------------------------------------------------------------|

E|--16p15--13h15--16--18--16--15--|
B|--------------------------------|
G|--------------------------------|
D|--------------------------------|
A|--------------------------------|
E|--------------------------------|


[Chorus]

C                     Em
Roses, Bel Air, take me there,
 Gm                              F
I've been waiting to meet you.
F                                   Am
Palm trees, in the light, i can see, late at night
Cm                            Gm
Darling I'm willing to greet you,
                   F
Come to me baby.


[Verse]
 
Guitar 1:
                C          Em          C           Em          Dm              Fm
E|-------------------------------------------------------------------------------------|
B|--------------5-----------8-----------5-----------8-----------6--5--6-------------9--|
G|-----------5-----------9-----------5-----------9-----------7------------------10-----|  
D|--------5-----------9-----------5-----------9-----------7-----------------10---------|
A|-----3-----------7-----------3-----------7-----------5-----------------8-------------|
E|-------------------------------------------------------------------------------------|

Guitar 2: 

E|--12p10--8h10--12--12p10--8h10--12--15p14--12h14--15--15p14--12h14--15--17--|
B|----------------------------------------------------------------------------|
G|----------------------------------------------------------------------------|
D|----------------------------------------------------------------------------|
A|----------------------------------------------------------------------------|
E|----------------------------------------------------------------------------|

E|--12p10--8h10--12--12p10--8h10--12--15p14--12h14--15--15p14--12h14--13p12--10h12--13p12--10h12--13--|
B|----------------------------------------------------------------------------------------------------|
G|----------------------------------------------------------------------------------------------------|
D|----------------------------------------------------------------------------------------------------|
A|----------------------------------------------------------------------------------------------------|
E|----------------------------------------------------------------------------------------------------|

E|--16p15--13h15--16--18--16--15--|
B|--------------------------------|
G|--------------------------------|
D|--------------------------------|
A|--------------------------------|
E|--------------------------------|


Guitar 1:
                C          Em          C           Em          Dm              Fm
E|-------------------------------------------------------------------------------------|
B|--------------5-----------8-----------5-----------8-----------6--5--6-------------9--|
G|-----------5-----------9-----------5-----------9-----------7------------------10-----|  
D|--------5-----------9-----------5-----------9-----------7-----------------10---------|
A|-----3-----------7-----------3-----------7-----------5-----------------8-------------|
E|-------------------------------------------------------------------------------------|

Guitar 2: 

E|--12p10--8h10--12--12p10--8h10--12--15p14--12h14--15--15p14--12h14--15--17--|
B|----------------------------------------------------------------------------|
G|----------------------------------------------------------------------------|
D|----------------------------------------------------------------------------|
A|----------------------------------------------------------------------------|
E|----------------------------------------------------------------------------|

E|--12p10--8h10--12--12p10--8h10--12--15p14--12h14--15--15p14--12h14--13p12--10h12--13p12--10h12--13--|
B|----------------------------------------------------------------------------------------------------|
G|----------------------------------------------------------------------------------------------------|
D|----------------------------------------------------------------------------------------------------|
A|----------------------------------------------------------------------------------------------------|
E|----------------------------------------------------------------------------------------------------|

E|--16p15--13h15--16--18--16--15--|
B|--------------------------------|
G|--------------------------------|
D|--------------------------------|
A|--------------------------------|
E|--------------------------------|


[Chorus]

C                     Em
Roses, Bel Air, take me there,
 Gm                              F
I've been waiting to meet you.
F                                   Am
Palm trees, in the light, i can see, late at night
Cm                            Gm
Darling I'm willing to greet you,
                   F
Come to me baby.


[Verse]
 
Guitar 1:
                C          Em          C           Em          Dm              Fm
E|-------------------------------------------------------------------------------------|
B|--------------5-----------8-----------5-----------8-----------6--5--6-------------9--|
G|-----------5-----------9-----------5-----------9-----------7------------------10-----|  
D|--------5-----------9-----------5-----------9-----------7-----------------10---------|
A|-----3-----------7-----------3-----------7-----------5-----------------8-------------|
E|-------------------------------------------------------------------------------------|

Guitar 2: 

E|--12p10--8h10--12--12p10--8h10--12--15p14--12h14--15--15p14--12h14--15--17--|
B|----------------------------------------------------------------------------|
G|----------------------------------------------------------------------------|
D|----------------------------------------------------------------------------|
A|----------------------------------------------------------------------------|
E|----------------------------------------------------------------------------|

E|--12p10--8h10--12--12p10--8h10--12--15p14--12h14--15--15p14--12h14--13p12--10h12--13p12--10h12--13--|
B|----------------------------------------------------------------------------------------------------|
G|----------------------------------------------------------------------------------------------------|
D|----------------------------------------------------------------------------------------------------|
A|----------------------------------------------------------------------------------------------------|
E|----------------------------------------------------------------------------------------------------|

E|--16p15--13h15--16--18--16--15--|
B|--------------------------------|
G|--------------------------------|
D|--------------------------------|
A|--------------------------------|
E|--------------------------------|


[Chorus]

C                     Em
Roses, Bel Air, take me there,
 Gm                              F
I've been waiting to meet you.
F                                   Am
Palm trees, in the light, i can see, late at night
Cm                            Gm
Darling I'm willing to greet you,
                   F
Come to me baby.

C                     Em
Roses, Bel Air, take me there,
 Gm                              F
I've been waiting to meet you.
F                                   Am
Palm trees, in the light, i can see, late at night
Cm                            Gm
Darling I'm willing to greet you,
                   F
Come to me baby.            
Submit corrections

↑ Back to top | Tablatures and chords for acoustic guitar and electric guitar, ukulele, drums are parodies/interpretations of the original songs. You may use it for private study, scholarship, research or language learning purposes only