Home » L » Lana Del Rey »

Lana Del Rey - Axl Rose Husband Tabs

Artists:  A B C D E F G H I J K L M N O P Q R S T U V W X Y Z # 

Axl Rose Husband Tabs

(ver. 1) Click to play this song!
Lana Del Rey

 pt I                    pt II 'You're my one king daddy...'
e|-----6----6----6----6--|-------6----6----6----6----6----6----6----6------|
B|-----------------------|-------------------------------------------------|
G|---3----3--------------|-----6----6----5----5----3----3----3----3--------|
D|-------------4----4----|-------------------------------------------------|
A|-----------------------|-------------------------------------------------|
E|-------------------rpt-|-------------------------------------------------|
                                           pt I
e|---6----6----6---6----6----6----6----6---|---6----6----6----6--6-6-6-6---|
B|--------------------4----4---------------|-------------------------------|
G|-6----6----5---5--------(3)--------------|-3----3-------------6-6-5-5--3-|
D|------------------------------4----4-----|-----------4----4------------4-|
A|-----------------------------------------|-------------------------------|
E|----------------------------------rptx2--|----------------rpt->-------end|

You my Axl Rose husband
Blue hydrangea
White Pontiac heaven
Me your red, white and blue girl
Star spangled danger
You my heaven,
Heaven King, king

I said, "Daddy, I need you" (yes)
Greenwich, I need you
Strangled up in ivy
I'm the garden of Eden
Lady Liberty
Til it flame I'm shinin'
Queen, queen

You're my one king daddy
And I'm your little queen
Red, white and blue
White and blue

Record executive I
Need you to leave, find
Someone come replace you
Should I happen to meet you
Downtown, or see you
I would fall down dead
I'm breathed by you
Breathed by you

In blue denim I meet you
Barefoot I need you
Diamond horseshoe sparklin'
You're my king Jewish maven
Kids on vacation
Florida Keys are calling
Come back to me
Come back to me
            
Submit corrections

↑ Back to top | Tablatures and chords for acoustic guitar and electric guitar, ukulele, drums are parodies/interpretations of the original songs. You may use it for private study, scholarship, research or language learning purposes only