» » »

Lake Street Dive - You Are Free Chords

Artists:  A B C D E F G H I J K L M N O P Q R S T U V W X Y Z # 

You Are Free Chords

(ver. 1) Click to play this song!
Lake Street Dive
 Rating:
4.3/5 (16 votes)

 You Are Free lessons Tabs too difficult? Try these video lessons and learn fast
 
                [Intro]
Intro Riff

[Verse 1]
                         F#m
You don't need a team of lawyers looking for evidence
                          F#m
You don't need a piece of paper trying to prove your intent
           C#
To be free
                             F#m
You don't need to look back, easy, if you said what you meant
                          F#m
You don't need your heart running at a hundred percent
             C#
All you need

[Verse 2]
                   F#m
I don't need a deposition to believe what you said
                       F#m
I don't need a crystal ball to hear the thoughts in your head
          C#
I can see
                         F#m
I don't need a judge and jury to determine our fate
                         F#m
I don't need a priest to tell me that you ain't been a saint
         C# Verse-End Riff
All we need is me

[Pre-Chorus]
             D#
I'm tired of hearing 'bout your flaws
    F
And all the broken laws
        A#5           G#5    D#5  Pre-Chorus Riff
And the hearts you've left behind
     D#               F
It's not up to you to make up my mind

[Chorus]
   F#                  C#
So free yourself up to love me
     G#                      D#
Just love me like a good man
F#                  C#
Free yourself up to love me
       G#
If you can
   F#                  C#
So free yourself up to love me
     G#                      D#
Just love me like a good man
F#                  C#
Free yourself up to love me
       G#
If you can

[Interlude]
Interlude Riff

[Verse 3]
          Verse 3 Riff   F#m
You don't need to call a doctor, show me where you've been cut
                         F#m
You don't need to call a locksmith, I can tell the door's shut
   C#            Verse-End Riff
Where's the key?
                Verse 3 Riff F#m
I don't need to see a        lineup, I know who's been involved
                        F#m
Don't you turn yourself in, you know the crime has been solved
             C#     Verse-End Riff
You are free,   you are free

[Pre-Chorus]
             D#
I'm tired of hearing 'bout your flaws
    F
And all the broken laws
        A#5           G#5    D#5  Pre-Chorus Riff
And the hearts you've left behind
           D#               F
Well, it's not up to you to make up my mind
          A#                                    F#/G#
And if in hindsight it's a mistake, at least we tried

[Chorus]
F#                  C#
Free yourself up to love me
     G#                      D#
Just love me like a good man
F#                  C#
Free yourself up to love me
       G#
If you can
F#                  C#
Free yourself up to love me
     G#                       D#
Just love me like a good man
F#                  C#
Free yourself up to love me
       G#  Chorus Riff
If you can

F#                  C#
Free yourself up to love me
     G#                       D#
Just love me like a good man
F#                  C#
Free yourself up to love me
       G#  Chorus Riff
If you can
F#                  C#
Free yourself up to love me
     G#                       D#
Just love me like a good man
F#                  C#
Free yourself up to love me
       G#  Chorus Riff
If you can

[Outro]
              F#  C# G# D#
Free yourself up
                    F#  C# G# Chorus Riff
Love me like a good man
              F#  C# G# D#
Free yourself up
                                       F#  C# G# Chorus Riff
Well love me, well love me like a good man


Riffs:

[Intro Riff]
   Gtr I
e|---------|-----------------------------------------|
B|---------|-----------------------------------------|
G|-11-9-10-|-(10)-8--------------------------11-9-10-|
D|---------|--------11-9-----------------------------|
A|---------|-------------9-----8---9-10-11-----------|
E|---------|-----------------------------------------|


e|-------------------------------------|---------------------------------------|
B|-------------------------------------|---------------------------------------|
G|-(10)-8----------------------11-9-10-|-(10)-8--------------------------------|
D|--------11-9-------------------------|--------11-9------------------------9--|
A|-------------9-6-7-8-----------------|-------------9-----8---9-10-11------9--|
E|-------------------------------------|------------------------------------7--|
 |                                     |                                       |
 |                             Gtr II  |                                       |
e|-------------------------------------|---------------------------------------|
B|-------------------------------------|---------------------------------------|
G|-------------------------------------|---------------------------------------|
D|-------------------------------------|-----------------------1-2--3----------|
A|-----------------------------2--3-4--|-(4)--2------5-----4-------------------|
E|-------------------------------------|--------4--2---------------------------|

   Gtr I
e|----------------------------------|
B|----------------------4-----------|
G|----------------------5-----------|
D|-(9)---8-------6------6-----------|
A|-(9)---9-------6------6-----------|
E|-(7)---6-------4------4-----------|


[Verse-End Riff]
e|---------|------------------------------|
B|---------|------------------------------|
G|-11-9-10-|-(10)-8-----------------------|
D|---------|--------11-9------------------|
A|---------|-------------9-6-7-8----------|
E|---------|------------------------------|
 |
e|---------|------------------------------|
B|---------|------------------------------|
G|---------|------------------------------|
D|---------|------------------------------|
A|-2--3-4--|-(4)--2------5-2-3-4----------|
E|---------|--------4--2------------------|

[Pre-Chorus Riff]
E|----------------------------------|
B|----------------------------------|
G|----------------------8-----------|
D|-----------------8-10---10-8------|
A|-6-----------6/8-------------10---|
E|----------------------------------|


[Interlude Riff]
   Gtr I
e|---------|-----------------------------------------|
B|---------|-----------------------------------------|
G|---------|-----------------------------------------|
D|-11-9-10-|-(10)-8----------------------------------|
A|---------|--------11-9-----------------------7-8-9-|
E|---------|-------------9-----8---9-10-11-----------|


e|-------------------------------------|-----------------------------------------|
B|-------------------------------------|-----------------------------------------|
G|-----------------------------11-9-10-|-(10)-8--------------------------11-9-10-|
D|-------------------------------------|--------11-9-----------------------------|
A|-(9)-7-------------------------------|-------------9-----8---9-10-11-----------|
E|-------9-7-6-----5---7-8-9-----------|-----------------------------------------|
 |                                     |                                         |
 |                             Gtr II  |                                         |
e|-------------------------------------|-----------------------------------------|
B|-------------------------------------|-----------------------------------------|
G|-------------------------------------|-----------------------------------------|
D|-------------------------------------|-----------------------1-2--3------------|
A|-----------------------------2--3-4--|-(4)--2------5-----4-------------2--3-4--|
E|-------------------------------------|--------4--2-----------------------------|


e|-------------------------------|---------------------------------------|
B|-------------------------------|---------------------------------------|
G|-(10)-8----------------11-9-10-|-(10)-8--------------------------------|
D|--------11-9-------------------|--------11-9------------------------9--|
A|-------------9-6-7-8-----------|-------------9-----8---9-10-11------9--|
E|-------------------------------|------------------------------------7--|
 |                               |                                       |
e|-------------------------------|---------------------------------------|
B|-------------------------------|---------------------------------------|
G|-------------------------------|---------------------------------------|
D|-------------------------------|-----------------------1-2--3----------|
A|-(4)--2------5-2-3-4---2--3-4--|-(4)--2------5-----4-------------------|
E|--------4--2-------------------|--------4--2---------------------------|

   Gtr I
e|----------------------------------|
B|----------------------4-----------|
G|----------------------5-----------|
D|-(9)---8-------6------6-----------|
A|-(9)---9-------6------6-----------|
E|-(7)---6-------4------4-----------|


[Verse 3 Riff]
e|---------------------------|---------------------------|
B|---------------------------|---------------------------|
G|---------------------------|---------------------------|
D|---------------9---9-11----|---------------9---9-11----|
A|-9-----12-12---------------|-9-----12-12---------------|
E|---------------------------|---------------------------|

e|-------------------------|
B|-------------------------|
G|-------------------------|
D|-------------------------|
A|-4----4-4---4-4----------|
E|-------------------------|


[Chorus Riff]
e|-----------------------|
B|-----------------------|
G|-11-10-8---------------|
D|----------11-10-8------|
A|-------------------11--|
E|-----------------------|

            
Submit corrections


        You Are Free lessons Hard to play? Try these video lessons and learn fast You Are Free lessons
        
↑ Back to top | Tablatures and chords for acoustic guitar and electric guitar, ukulele, drums are parodies/interpretations of the original songs. You may use it for private study, scholarship, research or language learning purposes only