» » »

La Gusana Ciega - No Puedo Verte Tabs

Artists:  A B C D E F G H I J K L M N O P Q R S T U V W X Y Z # 

No Puedo Verte Tabs

(ver. 1) Click to play this song!
La Gusana Ciega
 Rating:
4/5 (5 votes)


 No Puedo Verte lessons Tabs too difficult? Try these video lessons and learn fast
 
                  -=Intro=- (clean guitar)
    Bm                           
e|--------------------------------|]   
B|--------------------------------|]  
G|--------------------------------|]   
D|-----------------------------2--|]   
A|--2222-0-2222-0-2222-0-2-4-5----|]   
E|--------------------------------|] x2   

 -=Riff 1=-				  -=Riff 2=-
    Bm                                     G
e|--------------------------------|]   e|-------------------------------|]
B|--------------------------------|]   B|-------------------------------|]
G|--------------------------------|]   G|-------------------------------|]
D|-----------------------------2--|]   D|-------------------------------|]
A|--2222-0-2222-0-2222-0-2-4-5----|]   A|--------------------------2-4--|]
E|--------------------------------|]   E|--3333-0-3333-0-3333-0-3-5-----|]
Bm                        G 
Hay cosas que yo puedo perdonar,
Bm                             G 
pero hay cosas que tu tienes que explicar,
Bm                        G 
porque yo siempre tengo que esperar,
e|--------------------------------------------------------|]	
B|--------------------------------------------------------|]
G|-------7-7-7-7-7-7-7-7-7-7-9-9-9-9-9-9-9-9-9------------|]
D|-------7-7-7-7-7-7-7-7-7-7-9-9-9-9-9-9-9-9-9-7-7-7-7-7--|]
A|-------5-5-5-5-5-5-5-5-5-5-7-7-7-7-7-7-7-7-7-7-7-7-7-7--|]
E|---------------------------------------------5-5-5-5-5--|] (w/dist)  
         D5                  E5                A5
en una esquina, mientras tu bailas con alguien más.

    Bm                           
e|--------------------------------|]   
B|--------------------------------|]  
G|--------------------------------|]   
D|-----------------------------2--|]   
A|--2222-0-2222-0-2222-0-2-4-5----|]   
E|--------------------------------|] x1

 -=Riff 1=-				  -=Riff 2=-
    Bm                                     G
e|--------------------------------|]   e|-------------------------------|]
B|--------------------------------|]   B|-------------------------------|]
G|--------------------------------|]   G|-------------------------------|]
D|-----------------------------2--|]   D|-------------------------------|]
A|--2222-0-2222-0-2222-0-2-4-5----|]   A|--------------------------2-4--|]
E|--------------------------------|]   E|--3333-0-3333-0-3333-0-3-5-----|]
Bm                     G 
Yo no soy nadie para desconfiar,
Bm                       G 
pero últimamente nada ha sido igual,
Bm                      G 
piensa dos veces antes de jugar,
e|------------------------------------------------------------|]   
B|------------------------------------------------------------|]
G|-----------7-7-7-7-7-7-7-7-7-7-9-9-9-9-9-9-9-9-9------------|]
D|--5--7--9--7-7-7-7-7-7-7-7-7-7-9-9-9-9-9-9-9-9-9-7-7-7-7-7--|]
A|--5--7--9--5-5-5-5-5-5-5-5-5-5-7-7-7-7-7-7-7-7-7-7-7-7-7-7--|]
E|--3--5--7----------------------------------------5-5-5-5-5—-|] (w/dist)
    G5 A5 B5 D5                  E5                A5
   con mi cariño, que estoy dispuesto a hacerte llorar.

-=Coro=- x2
e|-----------------------------------------------------------------|]   
B|-----------------------------------------------------------------|]
G|------------------------------9-9-9-9-9-9-9-9-9------------------|]
D|--------9-9-9-9-9-9-9-9-9-9-9-9-9-9-9-9-9-9-9-9-7-7-7-7-7-7-7-7--|]
A|--------9-9-9-9-9-9-9-9-9-9-9-7-7-7-7-7-7-7-7-7-7-7-7-7-7-7-7-7--|]
E|--------7-7-7-7-7-7-7-7-7-7-7-------------------5-5-5-5-5-5-5-5—-|] (w/dist)
          B5                    E5                A5
Porque yo no, no, no, no puedo verte, con alguien más. 

-=Intro=- (clean guitar)
   Bm                            G
e|-------------------------------------------------------------|]
B|-------------------------------------------------------------|]
G|-------------------------------------------------------------|]
D|-------------------------------------------------------------|]
A|-0-2222-0-2222-0-2222-0-2222-0--------------------------2-4--|]
E|--------------------------------3333-0-3333-0-3333-0-3-5-----|]

 -=Riff 1=-				  -=Riff 2=-
    Bm                                     G
e|--------------------------------|]   e|-------------------------------|]
B|--------------------------------|]   B|-------------------------------|]
G|--------------------------------|]   G|-------------------------------|]
D|-----------------------------2--|]   D|-------------------------------|]
A|--2222-0-2222-0-2222-0-2-4-5----|]   A|--------------------------2-4--|]
E|--------------------------------|]   E|--3333-0-3333-0-3333-0-3-5-----|]
Bm                       G 
Hay cosas que yo puedo perdonar,
Bm                         G 
pero últimamente nada ha sido igual,
Bm                          G 
no te sorprendas si algún día estas,
e|-----------------------------------------------------------|]  
B|-----------------------------------------------------------|]
G|-------------7-7-7-7-7-7-7-7-7-9-9-9-9-9-9-9-9-------------|]
D|--5~---------7-7-7-7-7-7-7-7-7-9-9-9-9-9-9-9-9--7-7-7-7-7--|]
A|--5~---------5-5-5-5-5-5-5-5-5-7-7-7-7-7-7-7-7--7-7-7-7-7--|]
E|--3~--------------------------------------------5-5-5-5-5--|] (w/dist)
              D5                E5               A5
     sin mi cariño, y estoy en brazos de alguien más.

-=Coro=- x2
e|-----------------------------------------------------------------|]   
B|-----------------------------------------------------------------|]
G|------------------------------9-9-9-9-9-9-9-9-9------------------|]
D|--------9-9-9-9-9-9-9-9-9-9-9-9-9-9-9-9-9-9-9-9-7-7-7-7-7-7-7-7--|]
A|--------9-9-9-9-9-9-9-9-9-9-9-7-7-7-7-7-7-7-7-7-7-7-7-7-7-7-7-7--|]
E|--------7-7-7-7-7-7-7-7-7-7-7-------------------5-5-5-5-5-5-5-5—-|] (w/dist)
          B5                    E5                A5
Porque yo no, no, no, no puedo verte, con alguien más. 

-=Pre-Solo=- x3
    Em       Am        Bm      Em
e|--9h10-----9h10------9h10----11s12-10--|]
B|---------------------------------------|]
G|---------------------------------------|]
D|---------------------------------------|]
A|---------------------------------------|]
E|---------------------------------------|] x2 (soft dist)
   Em          Am   Bm           Em
No quiero descubrir que te vas a ir,
   Em         Am      Bm           G        
no puedo permitir que me engañes a mí 

e|---------------------------|]
B|---------------------------|]
G|---------------------------|]
D|---2--------------7-7-7-7--|]
A|---2--------------7-7-7-7--|]
E|---0--------------5-5-5-5—-|] (w/dist)
     Em             A
como yo te engaño a tí.

-=Solo=-  
   Bm - E - A  (x3)
e|-----------------------------------------------------------|]
B|-----------------------------------------------------------|]
G|-----------------------------------------------------------|]
D|------------2-4-5-4~---5-4-2-------------------------------|]
A|--0-0-2-4-5------------------5-4-2-4-5~---5-4-2------------|]
E|------------------------------------------------5-3-2-3-5--|]

e|--------------------------------------------------------|]
B|--------------------------------------------------------|]
G|--------------------------------------------------------|]
D|--------------2-4--5~---2-4-5-4-2-----------------------|]
A|--------2-4-5---------------------5-4-5~---2-4~---2-4~--|]
E|--2-3-5-------------------------------------------------|]

-=2 guitars in this part=-
e|-----7----7----10---10-----7-777/0------------------------|]
B|-----7----7----10---10-----8-888/0------------------------|]
G|------------777--777---999--999---------------------------|]
D|--999--999--777--777---999--999---------------------------|]
A|--999--999--555--555---777--777--------2---4~~----2---4~~-|]
E|--777--777------------------------------------------------|]

-=Coro=- x2
e|-----------------------------------------------------------------|]   
B|-----------------------------------------------------------------|]
G|------------------------------9-9-9-9-9-9-9-9-9------------------|]
D|--------9-9-9-9-9-9-9-9-9-9-9-9-9-9-9-9-9-9-9-9-7-7-7-7-7-7-7-7--|]
A|--------9-9-9-9-9-9-9-9-9-9-9-7-7-7-7-7-7-7-7-7-7-7-7-7-7-7-7-7--|]
E|--------7-7-7-7-7-7-7-7-7-7-7-------------------5-5-5-5-5-5-5-5—-|] (w/dist)
          B5                    E5                A5
Porque yo no, no, no, no puedo verte, con alguien más. 

-=Final Coro: x1=-						      (distor off)
e|-----------------------------------------------------------------2--|]
B|----------------------------------------------------P------------3--|]
G|--------------------------------9-9-9-9-9-9-9-9-9-9-A------------4--|]
D|--------9-9-9-9-9-9-9-9-9-9-9-9-9-9-9-9-9-9-9-9-9-9-U------------4--|]
A|--------9-9-9-9-9-9-9-9-9-9-9-9-7-7-7-7-7-7-7-7-7-7-S---------------|]
E|--------7-7-7-7-7-7-7-7-7-7-7-7---------------------A---------------|]
          B5                       E5                              Bm
Porque yo no, no, no, no quiero perderte,               con alguien más. 
            
Submit corrections



        No Puedo Verte lessons Hard to play? Try these video lessons and learn fast No Puedo Verte lessons
        
↑ Back to top | Tablatures and chords for acoustic guitar and electric guitar, ukulele, drums are parodies/interpretations of the original songs. You may use it for private study, scholarship, research or language learning purposes only