» » »

La Gusana Ciega - No Me Tientes Bass

Artists:  A B C D E F G H I J K L M N O P Q R S T U V W X Y Z # 

No Me Tientes Bass

(ver. 1) Click to play this song!
La Gusana Ciega
 Rating:
4/5 (4 votes)


 No Me Tientes lessons Tabs too difficult? Try these video lessons and learn fast
 
                Inicio:Verso 1
Si encontraras...


   Am              Em          Am         Em
|-------------------------------------------------------------------
|----------------------------------------------5---5-----5----------
|----------------7-7--7-77-----------------7-7---7---7-7---7--------
|--5-5--555---------------------5-555-5-----------------------------


 Am              Em            Am          Em
|--------------------------------------------------------------------
|-------------------------------------------7*14-14-12-14------------
|----------------7-7--7-77-----------------7-------------------------
|--5-5--555---------------------5-555-5------------------------------


  Am              Em          Am         Em
|-------------------------------------------------------------------
|----------------------------------------------5---5-----5----------
|----------------7-7--7-77-----------------7-7---7---7-7---7--------
|--5-5--555---------------------5-555-5-----------------------------


 Am              Em            Am          Em
|--------------------------------------------------------------------
|----------------------------------------------5---5----5------------
|----------------7-7--7-77-----------------7-7---7---7-7-------------
|--5-5--555---------------------5-555-5------------------------------

Coro:

No me tientes...
  G             Bm                   
|----------------------------
|---------------------------- (x3)        
|----------------2-2-22-2----
|-3-3-3-33-------------------

 a morir junto a ti.
    D              Em               
|----------------------------
|----------------------------          
|---5-55------------7--------
|----------------------------

Verso 2
Si tuvieras que morir...

 Am              Em             Am         Em
|-------------------------------------------------------------------
|----------------------------------------------5---5-----5----------
|----------------7-7--7-77-----------------7-7---7---7-7---7--------
|--5-5--555---------------------5-555-5-----------------------------


  Am              Em            Am          Em
|--------------------------------------------------------------------
|-------------------------------------------------5*7*5--------------
|----------------7-7--7-77-------------------7-7---------7-5---------
|--5-5--555---------------------5-555-5------------------------------

Coro:
 

    No me tientes...
  G             Bm                   
|----------------------------
|---------------------------- (x3)         
|----------------2-2-22-2----
|-3-3-3-33-------------------

 a morir 
    D                             
|------------     
|------------              
|---5-55-----     
|------------ 

Intermedio: Uh Uh Uh...
   
   Am        D         G     A      B
|----------------------------------------------------------
|-----------------------5-----7------9---------------------  (x3)
|-------------5-5-5-5--------------------------------------  
|--5-5-55--------------------------------------------------


   Am        D         G     
|----------------------------------------------------------
|----------------------------------------------------------
|-------------5-5-5-5--------------------------------------  
|--5-5-55---------------3-3-3-3-3--------------------------



Solo:
  Em                             Am                              
|--------------------------------------------------------
|--------------------------------------------------------  (x3)        
|-7--7-5-7--7-5-77-5-7-5-7-5----------------------------- 
|--------------------------------5-5-3-5-5-3-55-3-5*7*5--

coro: una vez mas

verso 1 una vez mas

coro final:

  No me tientes...
  G             Bm                   
|----------------------------
|---------------------------- (x3)
|----------------2-2-22-2----
|-3-3-3-33-------------------

 a morir 
    D                             
|-------------------------     
|----------------5----5---              
|---5-55-------7----7-----     
|-------------------------

No me tientes...
  G             Bm                   
|----------------------------
|---------------------------- (x3)
|----------------2-2-22-2----
|-3-3-3-33-------------------

 a morir junto a ti.
    D              Em               
|----------------------------
|----------------------------          
|---5-55------------7--------
|----------------------------

Fin


Diviértanse sacándola solo escuchen bien la rola para ke vean bien los tiempos....
            
Submit corrections



        No Me Tientes lessons Hard to play? Try these video lessons and learn fast No Me Tientes lessons
        
↑ Back to top | Tablatures and chords for acoustic guitar and electric guitar, ukulele, drums are parodies/interpretations of the original songs. You may use it for private study, scholarship, research or language learning purposes only