» » »

La Femme - Elle Ne Taime Pas Tabs

Artists:  A B C D E F G H I J K L M N O P Q R S T U V W X Y Z # 

Elle Ne Taime Pas Tabs

(ver. 1) Click to play this song!
La Femme
 Rating:
4.3/5 (12 votes)

 Elle Ne Taime Pas lessons Tabs too difficult? Try these video lessons and learn fast
 
                [Chorus 1 & 2]
e|10-13----|
B|------11-|
G|---------|
D|---------|
A|---------|
E|---------| x4


[Verse 2 (Second Half)]
e|10-13-10-13-10----|
B|---------------11-|
G|------------------|
D|------------------|
A|------------------|
E|------------------| x4

[Chorus 3]
e|10-8-------------|---------10----------|
B|-----10----------|---10-11-------------|
G|--------10-------|10----------10-------|
D|-----------12----|---------------12----|
A|--------------13-|------------------13-|
E|-----------------|---------------------| x2

[To End](Repeat and end on e|10)
e|10-10-10-10-9-|
B|--------------|
G|--------------|
D|--------------|
A|--------------|
E|--------------| 


(Other parts that he sometimes plays on the guitar live)
e|---------10------|---------10------|
B|------10----10---|------11----11---|
G|---10---------10-|---10---------10-|
D|12---------------|12---------------|
A|-----------------|-----------------|
E|-----------------|-----------------|

e|8-10-8------8-10-8-------------|8-10-8------------8----------|
B|-------10----------10----------|-------10---10-11------------|
G|----------10----------10-------|----------10--------10-------|
D|-------------------------12----|-----------------------12----|
A|----------------------------13-|--------------------------13-|
E|-------------------------------|-----------------------------|            
Submit corrections


        Elle Ne Taime Pas lessons Hard to play? Try these video lessons and learn fast Elle Ne Taime Pas lessons
        
↑ Back to top | Tablatures and chords for acoustic guitar and electric guitar, ukulele, drums are parodies/interpretations of the original songs. You may use it for private study, scholarship, research or language learning purposes only