» » »

Lady Antebellum - Can't Take My Eyes Off You Tabs

Artists:  A B C D E F G H I J K L M N O P Q R S T U V W X Y Z # 

Can't Take My Eyes Off You Tabs

(ver. 1) Click to play this song!
Lady Antebellum
 Rating:
4/5 (4 votes)
                (Intro)
Can't Take My Eyes Off You (Intro)


      G                    Em                    C
e|--------------------------------------------------------3--------|
B|----0---------0---1-1h3---0--------0---1-1h3---1-----------1-----|
G|----------0--------------------0--------------------0---------0--|
A|-------0----0---------------2----2---------------2----2----------|
D|--------------------------2--------------------3-----------------|
E|----3------------------------------------------------------------|
    D
e|------------2--0-----|
B|--3----3----------3--|
G|-----2----2----------|   REPEAT
A|--0------------------|
D|---------------------|
E|---------------------|

It's my first time doing a tab so pls go easy on me :)
If I there's something wrong with it pls comment. And pls note that this is only the INTRO.
            
Submit corrections

↑ Back to top | Tablatures and chords for acoustic guitar and electric guitar, ukulele, drums are parodies/interpretations of the original songs. You may use it for private study, scholarship, research or language learning purposes only