» » »

La Dispute - Woman Reading Tabs

Artists:  A B C D E F G H I J K L M N O P Q R S T U V W X Y Z # 

Woman Reading Tabs

(ver. 1) Click to play this song!
La Dispute
 Rating:
4.3/5 (28 votes)

 Woman Reading  lessons Tabs too difficult? Try these video lessons and learn fast
 
                0:00
e|--------------------------------|---------------------------------|
B|-5------------5--8--------------|-5------------5--8----5----------|
G|----------5-7-------------------|----------5-7--------------------|
D|-7---------------5--------------|-7---------------5----5----------|
A|--------------------------------|---------------------------------|
E|--------------------------------|---------------------------------|

e|--------------------------------|---------------------------------|
B|-5------------5--8----5----3----|-5------------5--8----5----3-----|
G|----------5-7-------------------|----------5-7-----------------4--|
D|-7---------------5----5----5----|-7---------------5----5----5-----|
A|--------------------------------|---------------------------------|
E|--------------------------------|---------------------------------|

e|--------------------------------|---------------------------------|
B|-5------------5--8----5----3----|-5------------5--8----5----3--3--|
G|----------5-7-------------------|----------5-7--------------------|
D|-7---------------5----5----5----|-7---------------5----5----5-----|
A|--------------------------------|---------------------------------|
E|--------------------------------|---------------------------------|

e|--------------------------------|-------------------------------------|
B|-5------------5--8----5----3----|-5------------5--8----5----3------3--|
G|----------5-7-------------------|----------5-7-----------------2-4----|
D|-7---------------5----5----5----|-7---------------5----5----5---------|
A|--------------------------------|-------------------------------------|
E|--------------------------------|-------------------------------------|


0:50
e|--------------------------------|---------------------------------|
B|-5------------5--8--------------|-5------------5--8----5----------|
G|----------5-7-------------------|----------5-7--------------------|
D|-7---------------5--------------|-7---------------5----5----------|
A|--------------------------------|---------------------------------|
E|--------------------------------|---------------------------------|

e|------(3)-----------------------|---------------------------------|
B|-5----(3)-----5--8----5----3----|-5------------5--8----5----3-----|
G|----------5-7-------------------|----------5-7-----------------4--|
D|-7---------------5----5----5----|-7---------------5----5----5-----|
A|--------------------------------|---------------------------------|
E|--------------------------------|---------------------------------|


1:22
e|--------------------------------|---------------------------------|
B|-5------------5--8----5----3----|-5------------5--8----5----3--3--|
G|----------5-7-------------------|----------5-7--------------------|
D|-7---------------5----5----5----|-7---------------5----5----5-----|
A|--------------------------------|---------------------------------|
E|--------------------------------|---------------------------------|

e|--------------------------------|-------------------------------------|
B|-5------------5--8----5----3----|-5------------5--8----5----3------3--|
G|----------5-7-------------------|----------5-7-----------------2-4----|
D|-7---------------5----5----5----|-7---------------5----5----5---------|
A|--------------------------------|-------------------------------------|
E|--------------------------------|-------------------------------------|


1:38
e|-----------------------------------|
B|-5-5-5-5-5-5-5-5-8-8-8-8-8-8-8-8-8-|
G|-0-0-0-0-0-0-0-0-0-0-0-0-0-0-0-0-0-|
D|-7-7-7-7-7-7-7-7-5-5-5-5-5-5-5-5-5-|
A|-----------------------------------|
E|-----------------------------------|


2:11
e|-----------------------------|-----------------------------|
B|-5-------5-5---8--5--8-------|-5-------5-5---8--5--8-------|
G|-5-555-7---5---5--5--5---5---|-5-555-7---5---5--5--5---5---|
D|-7---------7---7--7--7---7---|-7---------7---7--7--7---7---|
A|-------------------------7---|-------------------------7---|
E|-------------------------0---|-------------------------0---|


2:22
e|-----------------------------------|
B|-5-5-5-5-5-5-5-5-8-8-8-8-8-8-8-8-8-|
G|-5-5-5-5-5-5-5-5-0-0-0-0-0-0-0-0-0-|
D|-7-7-7-7-7-7-7-7-5-5-5-5-5-5-5-5-5-|
A|-----------------------------------|
E|-----------------------------------|


2:35
e|-----------------------------------|-----------------------------------|
B|-8-8-8-8-8-8-8-8-8-8-8-8-8-------5-|-8-8-8-8-8-8-8-8-8-8-8-8-8-5-5-3-3-|
G|-5-5-5-5-5-5-5-5-5-5-5-5-5-5-5-7---|-5-5-5-5-5-5-5-5-5-5-5-5-5-5-5-5-5-|
D|-7-7-7-7-7-7-7-7-7-7-7-7-7---------|-7-7-7-7-7-7-7-7-7-7-7-7-7-7-7-5-5-|
A|-----------------------------------|-----------------------------------|
E|-----------------------------------|-----------------------------------|


3:05
e|-----------------------------------|
B|-5-5-5-5-5-5-5-5-8-8-8-8-8-8-8-8-8-|
G|-0-0-0-0-0-0-0-0-0-0-0-0-0-0-0-0-0-|
D|-7-7-7-7-7-7-7-7-5-5-5-5-5-5-5-5-5-|
A|-----------------------------------|
E|-----------------------------------|



== GUITAR TWO (RIGHT SPEAKER) ==

0:00
e|----------|
B|----------|
G|-5---4----|
D|-7---5----|
A|----------|
E|----------|


0:35
e|-------------------|
B|-------------------|
G|-------------5-5-4-|
D|-----7-------------|
A|---7---------7-7-5-|
E|-5-----------5-5-3-|


0:50
e|-----------------------------|---------------------------------|
B|-----------------------------|---------------------------------|
G|---5---5---5---5---5---5---5-|---4---4---4---4---4---4---4---4-|
D|-7---7---7---7---7---7---7---|-5---5---5---5---5---5---5---5---|
A|-----------------------------|---------------------------------|
E|-----------------------------|---------------------------------|


1:22
e|-------------------|
B|-------------------|
G|-2-----------5-5-4-|
D|-------------------|
A|-3-----------7-7-5-|
E|-1-----------5-5-3-|


1:38
e|-------------------|
B|-------------------|
G|-------------------|
D|-5-5-5-5-5-5-5-5-5-|
A|-5-5-5-5-5-5-5-5-5-|
E|-------------------|


2:22
e|-------------------|
B|-------------------|
G|-4-4-4-4-4-4-4-4-4-|
D|-------------------|
A|-5-5-5-5-5-5-5-5-5-|
E|-3-3-3-3-3-3-3-3-3-|

e|--------------------------------------------------------------------------|
B|--------------------------------------------------------------------------|
G|----------------------2-2-2-2-2-2-2-2---6-6-6-6--4-4-4-4-4-4-4-4-4-4-4----|
D|-7-7-7-7-7-7-7-7----------------------------------------------------------|
A|-7-7-7-7-7-7-7-7------3-3-3-3-3-3-3-3---7-7-7-7--5-5-5-5-5-5-5-5-5-5-5----|
E|-5-5-5-5-5-5-5-5------1-1-1-1-1-1-1-1---5-5-5-5--3-3-3-3-3-3-3-3-3-3-3----|


2:35
e|------------------------------------|------------------------------------|
B|------------------------------------|------------------------------------|
G|-66666666-44444444-66666666-4444444-|-66666666-44444444-66666666-4444444-|
D|------------------------------------|------------------------------------|
A|-77777777-55555555-77777777-5555555-|-77777777-55555555-77777777-5555555-|
E|-55555555-33333333-55555555-3333333-|-55555555-33333333-55555555-3333333-|

e|--------------------------------------------------------------------------|
B|--------------------------------------------------------------------------|
G|-----------666666666-666666666--------------------------------------------|
D|-222222222-----------------------------------------------------2----------|
A|-222222222-777777777-555555555------22222222---55555555--------3----------|
E|-000000000-555555555-333333333------33333333---33333333--------1----------|            
Submit corrections


        Woman Reading  lessons Hard to play? Try these video lessons and learn fast Woman Reading  lessons
        
↑ Back to top | Tablatures and chords for acoustic guitar and electric guitar, ukulele, drums are parodies/interpretations of the original songs. You may use it for private study, scholarship, research or language learning purposes only