» » »

La Dispute - Thirteen Tabs

Artists:  A B C D E F G H I J K L M N O P Q R S T U V W X Y Z # 

Thirteen Tabs

(ver. 1) Click to play this song!
La Dispute
 Rating:
4.1/5 (31 vote)

 Thirteen lessons Tabs too difficult? Try these video lessons and learn fast
 
                0:03 intro
e|----------------------------------------------------------------|
B|----------------------------------------------------------------|
G|----2----2------2-------0h2p0------2----2---------2-------0h2p0-|
D|-(2)-----------2----(2)---------(2)----2---------2----(2)-------|
A|--3----3----3-----------2--------3----3----3--------------2-----|
E|----------------------------------------------------------------|

e|----------------------------------------------------------------------|
B|----------------------------------------------------------------------|
G|----2-------2-------2-------0h2p0-----2-------2-------2-------2-------|
D|-(2)--2---2---2---2---2-------------2---2-0h2---2-0h2---2-0h2---2-----|
A|--3-----3-------3-------3---2-------------------------------------2h3-|
E|----------------------------------------------------------------------|

0:20 “we will kneel…”
e|--------------------------------------------------------------------|
B|--------------------------------------------------------------------|
G|----2-------2-------2-------0h2p0-----2-------2-------2------0h2p0--|
D|-(2)--2---2---2---2---2-------------2---2---2---2---2---2-----------|
A|--3-----3-------3-------3---2-------3-----3-------3-------3--2------|
E|--------------------------------------------------------------------|

e|-------------------------------------------------------------------------|
B|-------------------------------------------------------------------------|
G|------2-------2-------2-------0h2p0-----2-------2-------2-------2--------|
D|----2---2---2---2---2---2-------------2---2-0h2---2-0h2---2-0h2---2------|
A|----3-----3-------2-------3---2--------------------------------------2h3-|
E|-------------------------------------------------------------------------|


2:46 “…that make you home…”
e|---------------------------------------------------|
B|---------------------------------------------------|
G|------2-----2-----2-----2-----2-----2-----2-----2--|
D|----2-----2-----2-----2-----2-----2-----2-----2----|
A|--3-----3-----3-----3-----3-----3-----3-----3------|
E|---------------------------------------------------|

2:55
e|--------------------------------------------------------------------|
B|--------------------------------------------------------------------|
G|----2-------2-------2-------0h2p0-----2-------2-------2------0h2p0--|
D|-(2)--2---2---2---2---2-------------2---2---2---2---2---2-----------|
A|--3-----3-------3-------3---2-------3-----3-------3-------3--2------|
E|--------------------------------------------------------------------|

3:04
e|---------------------------------------------------|
B|---------------------------------------------------|
G|------2-----2-----2-----2-----2-----2-----2-----2--|
D|----2-----2-----2-----2-----2-----2-----2-----2----|
A|--3-----3-----3-----3-----3-----3-----3-----3------|
E|---------------------------------------------------|

3:12
e|--------------------------------------------------------------------|
B|--------------------------------------------------------------------|
G|----2-------2-------2-------0h2p0-----2-------2-------2------0h2p0--|
D|-(2)--2---2---2---2---2-------------2---2---2---2---2---2-----------|
A|--3-----3-------3-------3---2-------3-----3-------3-------3--2------|
E|--------------------------------------------------------------------|

3:21 “and when the snow…”
e|--------------------------------------------------------------------|
B|--------------------------------------------------------------------|
G|----2-------2-------2-------0h2p0-----2-------2-------2------0h2p0--|
D|-(2)--2---2---2---2---2-------------2---2---2---2---2---2-----------|
A|--3-----3-------3-------3---2-------3-----3-------3-------3--2------|
E|--------------------------------------------------------------------|

e|-------------------------------------------------------------------------|
B|-------------------------------------------------------------------------|
G|------2-------2-------2-------0h2p0-----2-------2-------2-------2--------|
D|----2---2---2---2---2---2-------------2---2-0h2---2-0h2---2-0h2---2------|
A|----3-----3-------2-------3---2--------------------------------------2h3-|
A|-------------------------------------------------------------------------|

4:12
e|-----|
B|-----|
G|-----|
D|-----|
A|--3--|
E|-----|

== LEAD GUITAR ==

1:03 “there’s a village…”
e|----------------------------------------------------------|
B|--1---0--------3---1--0-------1-----0--------3---1--0-----|
G|--------2--0----------------------2---0--0----------------|
D|-------------------------2-----------------------------2--|
A|--0----------------3--2-------0------------------2--2-----|
E|------3----1---1--------------------3----1---1------------|

e|----------------|
B|------3---1--0--|
G|--0-------------|
D|----------------|
A|----------3--2--|
E|--1---1---------|


== PIANO/LEAD GUITAR ==

1:46
e|--8------7--5--12-------8-------7----5--|
B|--10-----8--------10----10--10--8-8--6--|
G|---------------10-----------------------|
D|----------------------------------------|
A|----------------------------------------|
E|----------------------------------------|

2:46
e|---------------------------------|
B|---------------------------------|
G|--7---7---7---7---9---9---7---7--|
D|--7-7-7-7-7-7-7-7-7-7-7-7-7-7-7--|
A|---------------------------------|
E|---------------------------------|

e|--5---3------------------------------------------|
B|---------3h5-------------------------------------|
G|----------------7---7---7---7---5---5---5---4----|
D|----------------7-7-7-7-7-7-7-7-7-7-7-7-7-7-4-7--|
A|-------------------------------------------------|
E|-------------------------------------------------|

            
Submit corrections


        Thirteen lessons Hard to play? Try these video lessons and learn fast Thirteen lessons
        
↑ Back to top | Tablatures and chords for acoustic guitar and electric guitar, ukulele, drums are parodies/interpretations of the original songs. You may use it for private study, scholarship, research or language learning purposes only