» » »

La Dispute - Then Again Maybe You Were Right Tabs

Artists:  A B C D E F G H I J K L M N O P Q R S T U V W X Y Z # 

Then Again Maybe You Were Right Tabs

(ver. 1) Click to play this song!
La Dispute
 Rating:
4/5 (4 votes)

 Then Again Maybe You Were Right  lessons Tabs too difficult? Try these video lessons and learn fast
 
                == GUITAR ONE ==

0:00
e|-----|
B|-----|
G|-----|
D|-2~--|
A|-2~--|
D|-2~--|


0:08
e|----------------------------------------------------------------------|
B|----------------------------------------------------------------------|
G|----------------------------------------------------------------------|
D|-2-xxx-xx-222-/7-5-3-2-xxxxx-2-xxx-3-xxx---2-xxx-xx-222-/7-5-3-5-2-3--|
A|-2-xxx-xx-222-/7-5-3-2-xxxxx-2-xxx-3-xxx---2-xxx-xx-222-/7-5-3-5-2-3--|
D|-2-xxx-xx-222-/7-5-3-2-xxxxx-2-xxx-3-xxx---2-xxx-xx-222-/7-5-3-5-2-3--|

e|----------------------------------------------------------------------|
B|----------------------------------------------------------------------|
G|----------------------------------------------------------------------|
D|-2-xxxx-3-xxx-2-xxxx-2/7-5-3-5-\-2---2-xxx-3-xxx-2-222-2-/7-5-3-5-2-3-|
A|-2-xxxx-3-xxx-2-xxxx-2/7-5-3-5-\-2---2-xxx-3-xxx-2-222-2-/7-5-3-5-2-3-|
D|-2-xxxx-3-xxx-2-xxxx-2/7-5-3-5-\-2---2-xxx-3-xxx-2-222-2-/7-5-3-5-2-3-|


0:31
e|------------------------------------------|
B|------------------------------------------|
G|------------------------------------------|
D|-2-0-2--\\\\\\\\\\\--2-0-2-///////-50600--|
A|-2-0-2--\pickslide\--2-0-2-/slide/-50600--|
D|-2-0-2--\\\\\\\\\\\--2-0-2-///////-50600--|

e|-------------------------------------------|
B|-------------------------------------------|
G|-------------------------------------------|
D|-2-0-2--///////////--2-0-2-///////-6-0-1-1-|
A|-2-0-2--/pickslide/--2-0-2-/slide/-6-0-1-1-|
D|-2-0-2--///////////--2-0-2-///////-6-0-1-1-|

e|------------------------------------------|
B|------------------------------------------|
G|------------------------------------------|
D|-2-0-2--\\\\\\\\\\\--2-0-2-///////-50600--|
A|-2-0-2--\pickslide\--2-0-2-/slide/-50600--|
D|-2-0-2--\\\\\\\\\\\--2-0-2-///////-50600--|

e|------------------------------------------|
B|------------------------------------------|
G|------------------------------------------|
D|-2-0-2--\\\\\\\\\\\--2-0-2-///////-506--0-|
A|-2-0-2--\pickslide\--2-0-2-/slide/-506--0-|
D|-2-0-2--\\\\\\\\\\\--2-0-2-///////-506--0-|


0:54
e|---------------------------------|
B|--------------4------------------|
G|--------------7b9----------------|
D|-0------------------\\\\\\\\\\\--|
A|-0------------------\pickslide\--|
e|-0------------------\\\\\\\\\\\--|


1:00
e|------------------------------|
B|------------------------------|
G|---------------------5-7------|
D|-0-35-0-36-0-35-35-0-----6-5--|
A|------------------------------|
D|------------------------------|

e|-----------------------------|
B|-----------------------------|
G|-----------------------------|
D|-0-35-0-56-0-6-0-810-0-1012--|
A|-----------------------------|
D|-----------------------------|


1:11
e|--------------------|
B|--------------------|
G|-77777777-5555-8888-|
D|-xxxxxxxx-xxxx-xxxx-|
A|-55555555-3333-6666-|
D|--------------------|

1:21
e|-------|
B|--3----|
G|--5b7--|
D|-------|
A|-------|
D|-------|

1:27
e|-----------------------------|
B|-----------------------------|
G|-75--------------------------|
D|----0-65-0-5-0-3-0-5-0-65-0--|
A|-----------------------------|
D|-----------------------------|



== GUITAR TWO == 

0:00
e|-----|
B|-----|
G|-----|
D|-2~--|
A|-2~--|
D|-2~--|


0:08
e|----------------------------------------------------------------------|
B|----------------------------------------------------------------------|
G|----------------------------------------------------------------------|
D|-2-xxx-xx-222-/7-5-3-2-xxxxx-2-xxx-3-xxx---2-xxx-xx-222-/7-5-3-5-2-3--|
A|-2-xxx-xx-222-/7-5-3-2-xxxxx-2-xxx-3-xxx---2-xxx-xx-222-/7-5-3-5-2-3--|
D|-2-xxx-xx-222-/7-5-3-2-xxxxx-2-xxx-3-xxx---2-xxx-xx-222-/7-5-3-5-2-3--|

e|----------------------------------------------------------------------|
B|----------------------------------------------------------------------|
G|----------------------------------------------------------------------|
D|-2-xxxx-3-xxx-2-xxxx-2/7-5-3-5-\-2---2-xxx-3-xxx-2-222-2-/7-5-3-5-2-3-|
A|-2-xxxx-3-xxx-2-xxxx-2/7-5-3-5-\-2---2-xxx-3-xxx-2-222-2-/7-5-3-5-2-3-|
D|-2-xxxx-3-xxx-2-xxxx-2/7-5-3-5-\-2---2-xxx-3-xxx-2-222-2-/7-5-3-5-2-3-|


0:31
e|------------------------------------------|
B|------------------------------------------|
G|------------------------------------------|
D|-2-0-2--\\\\\\\\\\\--2-0-2-///////-50600--|
A|-2-0-2--\pickslide\--2-0-2-/slide/-50600--|
D|-2-0-2--\\\\\\\\\\\--2-0-2-///////-50600--|

e|-------------------------------------------|
B|-------------------------------------------|
G|-------------------------------------------|
D|-2-0-2--///////////--2-0-2-///////-6-0-1-1-|
A|-2-0-2--/pickslide/--2-0-2-/slide/-6-0-1-1-|
D|-2-0-2--///////////--2-0-2-///////-6-0-1-1-|

e|------------------------------------------|
B|------------------------------------------|
G|------------------------------------------|
D|-2-0-2--\\\\\\\\\\\--2-0-2-///////-50600--|
A|-2-0-2--\pickslide\--2-0-2-/slide/-50600--|
D|-2-0-2--\\\\\\\\\\\--2-0-2-///////-50600--|

e|------------------------------------------|
B|------------------------------------------|
G|------------------------------------------|
D|-2-0-2--\\\\\\\\\\\--2-0-2-///////-506--0-|
A|-2-0-2--\pickslide\--2-0-2-/slide/-506--0-|
D|-2-0-2--\\\\\\\\\\\--2-0-2-///////-506--0-|


1:00
e|---------------------------------------------------------------|
B|---------------------------------------------------------------|
G|---------------------------------------------------------------|
D|-00-000000-00-0000000-33-333333-66-5555555---------------------|
A|-00-000000-00-0000000-33-333333-66-5555555---------------------|
e|-00-000000-00-0000000-33-333333-66-5555555---------------------|


1:21
e|----------------|
B|----------------|
G|-555----777-----|
D|-555-33-777-650-|
A|-333-33-555-650-|
e|-----33-----650-|

1:33
e|----------|
B|----------|
G|--777-----|
D|--777-6\5-|
A|--555-6\5-|
D|------6\5-|
            
Submit corrections


        Then Again Maybe You Were Right  lessons Hard to play? Try these video lessons and learn fast Then Again Maybe You Were Right  lessons
        
↑ Back to top | Tablatures and chords for acoustic guitar and electric guitar, ukulele, drums are parodies/interpretations of the original songs. You may use it for private study, scholarship, research or language learning purposes only