» » »

La Dispute - Ten Tabs

Artists:  A B C D E F G H I J K L M N O P Q R S T U V W X Y Z # 

Ten Tabs

(ver. 1) Click to play this song!
La Dispute
 Rating:
4/5 (6 votes)

 Ten lessons Tabs too difficult? Try these video lessons and learn fast
 
                
(After receiving a poor rating, I decided to go back and fix the tab)

Tuning: Standard

First Guitar. It sounds best picking with your fingers

e|-----------------------------|
B|-----------------------------|
G|-----------------------------|  Many, Many Times
D|--------7--9-------9-7-------|
A|--0-7-9------0-7-9-----------|
E|-----------------------------|

Second Guitar

e|---------------------------------------------------------------------|
B|---------------------------------------------------------------------|
G|---9---6------9-11-9-----9---6---------------------------------------|
D|---7---7-----------------7---7--------9---7--------------------------|  x2
A|--------------------------------------7---7--------------------------|
E|---------------------------------------------------------------------|


@ around 2:20 (it gradually builds up)

e|-------------------------------------|
B|-------------------------------------|
G|-2-2--0-2-2--0--2-2--0-2-2-----------|  Repeat
D|-2-2--0-2-2--0--2-2--0-2-2-----------|
A|-------------------------------------|
E|-------------------------------------|


Then @ 2:36 "I have tried to stay hopeful.."

e|--------------------------------|
B|--------1-----------------------|
G|------2----------0------0h2-----|  x4
D|----2----------2------3---------|
A|-------------2------3-----------|
E|--------------------------------|


e|-------------------------------------|
B|-------------------------------------|
G|-2-2--0-2-2--0--2-2--0-2-2-----------|
D|-2-2--0-2-2--0--2-2--0-2-2-----------|
A|-------------------------------------|
E|-------------------------------------|


@3:15 (palm muted chords) "Each chance to lock arms"
   F
e|-0--0--0--0--0--0------------------------|
B|-1--1--1--1--1--1------------------------|
G|-2--2--2--2--2--2------------------------|
D|-3--3--3--3--3--3------------------------|
A|-3--3--3--3--3--3------------------------|
E|-0--0--0--0--0--0------------------------|

@3:24 "I'm torn and reborn"
  Am
e|-0--0--0--0--0--0------|
B|-1--1--1--1--1--1------|
G|-2--2--2--2--2--2------|
D|-2--2--2--2--2--2------|
A|-0--0--0--0--0--0------|
E|-0--0--0--0--0--0------|

   

@ 3:24 (second guitar)
e|---------------------------------------------------------------------------|
B|---------------------------------------------------------------------------|
G|-9--9---7--9-10------------------------------------------------------------|
D|10-10---9-10-12------------------------------------------------------------|
A|---------------------------------------------------------------------------|
E|---------------------------------------------------------------------------|




e|-----------------------------|
B|-----------------------------|
G|-----------------------------| x 4
D|--------7--9-------9-7-------|
A|--0-7-9------0-7-9-----------|
E|-----------------------------|


Enjoy! I've loved this song for a while now and finally decided to learn it on guitar. 
Please rate or comment
            
Submit corrections


        Ten lessons Hard to play? Try these video lessons and learn fast Ten lessons
        
↑ Back to top | Tablatures and chords for acoustic guitar and electric guitar, ukulele, drums are parodies/interpretations of the original songs. You may use it for private study, scholarship, research or language learning purposes only