» » »

La Dispute - Shall Never Lose Its Power Tabs

Artists:  A B C D E F G H I J K L M N O P Q R S T U V W X Y Z # 

Shall Never Lose Its Power Tabs

(ver. 1) Click to play this song!
La Dispute
 Rating:
4.3/5 (9 votes)

 Shall Never Lose Its Power lessons Tabs too difficult? Try these video lessons and learn fast
 
                Guitar 1 - right speaker

0:00
e|-------------------------------------|----------------------------------|
B|-------------------------------------|----------------------------------|
G|-------------------------------------|-------9---9--------9---9-------9-|
D|-----15-------15-------15-------15---|-----7---7--------7---7-------7---|
A|---0----0---0----0---0----0---0----0-|---0------------0-----------0-----|
D|-0--------0--------0--------0--------|-0------------0-----------0-------|

e|-------------------------------------|----------------------------------|
B|-------------------------------------|----------------------------------|
G|-------------------------------------|-------9---9--------9---9-------9-|
D|-----15-------15-------15-------15---|-----7---7--------7---7-------7---|
A|---0----0---0----0---0----0---0----0-|---0------------0-----------0-----|
D|-0--------0--------0--------0--------|-0------------0-----------0-------|

e|-------------------------------------|
B|-------------------------------------|
G|-------------------------------------|
D|-----15-------15-------15-------15---|
A|---0----0---0----0---0----0---0----0-|
D|-0--------0--------0--------0--------|


0:33
e|-------------------------------------|----------------------------------|
B|-------------------------------------|----------------------------------|
G|-------------------------------------|-------9---9--------9---9-------9-|
D|-----15-------15-------15-------15---|-----7---7--------7---7-------7---|
A|---0----0---0----0---0----0---0----0-|---0------------0-----------0-----|
D|-0--------0--------0--------0--------|-0------------0-----------0-------|

e|-------------------------------------|----------------------------------|
B|-------------------------------------|----------------------------------|
G|-------------------------------------|-------9---9--------9---9-------9-|
D|-----15-------15-------15-------15---|-----7---7--------7---7-------7---|
A|---0----0---0----0---0----0---0----0-|---0------------0-----------0-----|
D|-0--------0--------0--------0--------|-0------------0-----------0-------|

e|-------------------------------------|
B|-------------------------------------|
G|-------------------------------------|
D|-----15-------15-------15-------15---|
A|---0----0---0----0---0----0---0----0-|
D|-0--------0--------0--------0--------|

e|-------------------------------------|----------------------------------|
B|-------------------------------------|----------------------------------|
G|-------------------------------------|-------9---9--------9---9-------9-|
D|-----15-------15-------15-------15---|-----7---7--------7---7-------7---|
A|---0----0---0----0---0----0---0----0-|---0------------0-----------0-----|
D|-0--------0--------0--------0--------|-0------------0-----------0-------|

e|-------------------------------------|----------------------------------|
B|-------------------------------------|----------------------------------|
G|-------------------------------------|-------9-9------------------------|
D|-----15-------15-------15-------15---|-----7---7------------------------|
A|---0----0---0----0---0----0---0----0-|---0-----0------------------------|
D|-0--------0--------0--------0--------|-0-------0------------------------|


1:03
e|---------------------------------------------------------------------------|
B|---------------------------------------------------------------------------|
G|-1010101010101010-12121212-9-9-9-9--1010101010101010-12-12-12-12-----------|
D|-x-x-x-x-x-x-x-x--x-x-x-x--x-x-x-x--x-x-x-x-x-x-x-x--x--x--x--x------------|
A|-8-8-8-8-8-8-8-8--10101010-7-7-7-7--8-8-8-8-8-8-8-8--10-10-10-10-----------|
D|-0-0-0-0-0-0-0-0--10101010-7-7-7-7--0-0-0-0-0-0-0-0--10-10-10-10---2-2-2-0-|

e|---------------------------------------------------------------|
B|-6--6-6--6----5--5-5--5----6--6-6--6---5--5-5--5---------------|
G|-7--7-7--7----5--5-5--5----7--7-7--7---5--5-5--5--9/-----------|
D|-x--x-x--x----x--x-x--x----x--x-x--x---x--x-x--x--x/-----------|
A|-5--5-5--5----3--3-3--3----5--5-5--5---3--3-3--3--7/-----------|
D|-0--0-0--0-----------------0--0-0--0--------------7/-----------|

e|---------------------------------------------------------------|
B|-6--6-6--6----5--5-5--5----6--6-6--6---5--5-5--5---------------|
G|-7--7-7--7----5--5-5--5----7--7-7--7---5--5-5--5--9-9----------|
D|-x--x-x--x----x--x-x--x----x--x-x--x---x--x-x--x--x-x----------|
A|-5--5-5--5----3--3-3--3----5--5-5--5---3--3-3--3--7-7----------|
D|-0--0-0--0-----------------0--0-0--0--------------7-7----------|


1:32
e|------------------------------------------------|
B|--------------------6-----6-----6-----6---------|
G|--------------------9-----9-----9-----9---------|
D|----------------------0-0---0-0---0-0----/8-8\--|
A|-5555555555555555-----0-0---0-0---0-0----/8-8\--|
D|-8888888877778888-----0-0---0-0---0-0----/8-8\--|


1:38
e|-0--------------------------------|
B|------5----4----7----1----3----5--|
G|------x----x----x----x----x----x--|
D|------7----6----9----3----5----7--|
A|-0----7----6----9----3----5----7--|
D|-0--------------------------------|


2:07
e|------------------------------------|-------------------------------------|
B|----12------12------12------12------|----12-------12-------12----12-------|
G|-------9-------9-------9-------9----|-------12-------12-------12----12----|
D|-10------10------10------10------10-|-xx-------10-------10-------------10-|
A|------------------------------------|-------------------------------------|
D|------------------------------------|-------------------------------------|

e|------------------------------------|---------------------------------------|
B|----12------12------12------12------|----12-------12-------12------12-------|
G|-------9-------9-------9-------9----|-------12-------12-------12------12----|
D|---------10------10------10------10-|----------10-------10-------10------10-|
A|-xx---------------------------------|-xx------------------------------------|
D|------------------------------------|---------------------------------------|

e|------------------------------------|---------------------------------------|
B|----12------12------12------12------|----12-------12-------12------12-------|
G|-------9-------9-------9-------9----|-------12-------12-------12------12----|
D|---------10------10------10------10-|----------10-------10-------10------10-|
A|-xx---------------------------------|-xx------------------------------------|
D|------------------------------------|---------------------------------------|

e|------------------------------------|-----------------------------------------------|
B|----12------12------12------12------|----12-------12-------12------12---------------|
G|-------9-------9-------9-------9----|-------12-------12-------12------12----12--12~-|
D|---------10------10------10------10-|----------10-------10-------10------10-----10~-|
A|-xx---------------------------------|-xx----------------------------------------12~-|
D|------------------------------------|-----------------------------------------------|


2:57
e|-----------------------------------------------------------------------|
B|-1010101010101010-8-8-8-8-8-8-8-8--8-8-8-8-8-8-8-8--6-6-6-6-6-6-6-6-6--|
G|-9-9-9-9-9-9-9-9--7-7-7-7-7-7-7-7--7-7-7-7-7-7-7-7--5-5-5-5-5-5-5-5-5--|
D|-7-7-7-7-7-7-7-7--5-5-5-5-5-5-5-5--5-5-5-5-5-5-5-5--3-3-3-3-3-3-3-3-3--|
A|-7-7-7-7-7-7-7-7--5-5-5-5-5-5-5-5--5-5-5-5-5-5-5-5--3-3-3-3-3-3-3-3-3--|
D|-7-7-7-7-7-7-7-7--5-5-5-5-5-5-5-5--5-5-5-5-5-5-5-5--3-3-3-3-3-3-3-3-3--|

e|-----------------------------------|
B|-1010101010101010-8-8-8-8-8-8-8-8--|
G|-9-9-9-9-9-9-9-9--7-7-7-7-7-7-7-7--|
D|-7-7-7-7-7-7-7-7--5-5-5-5-5-5-5-5--|
A|-7-7-7-7-7-7-7-7--5-5-5-5-5-5-5-5--|
D|-7-7-7-7-7-7-7-7--5-5-5-5-5-5-5-5--|

e|------------------------------------------------------------|
B|-8-8-8-8--10-10-10--10-12-12-12-12--13-13-13-13-13-13-13-13-|
G|-x-x-x-x--x--x--x---x--x--x--x--x---x--x--x--x--x--x--x--x--|
D|-5-5-5-5--7--7--7---7--9--9--9--9---10-10-10-10-10-10-10-10-|
A|------------------------------------------------------------|
D|------------------------------------------------------------|


3:21
e|----------12-------------------------------12--------------------------------|
B|--------------------------12---------------------12--13--12------------------|
G|-12-14-12--------12-14-12---------12-14-12-------------------------12-14--12-|
D|-------------------------------------------------------------12/14-----------|
A|-----------------------------------------------------------------------------|
D|-----------------------------------------------------------------------------|

e|----------12-------------------------------12---171717-15------|
B|--------------------------12------------------------------17---|
G|-12-14-12--------12-14-12---------12-14-12---------------------|
D|---------------------------------------------------------------|
A|---------------------------------------------------------------|
D|---------------------------------------------------------------|

e|-------------------------------------|
B|-13131313-12121212-------------------|
G|-------------------14141414-12~--\---|
D|-------------------------------------|
A|-------------------------------------|
D|-------------------------------------|\
 |                                     |--- same time
e|-------------------------------------|/
B|-------------------------------------|
G|-12121212-14141414-1717171717171717--|
D|-------------------------------------|
A|-------------------------------------|
D|-------------------------------------|


3:46
e|------------------------------------------------------|
B|------------------------------------------------------|
G|-14141414-16161616-17171717-1616161616161616-14141616-|
D|------------------------------------------------------|
A|------------------------------------------------------|
D|------------------------------------------------------|

e|-------------------------------------------------------|
B|-------------------------------------------------------|
G|-12121212-14141414-16161616-14141414-16161414-16161414-|
D|-------------------------------------------------------|
A|-------------------------------------------------------|
D|-------------------------------------------------------|

e|------------------------------------------------------------------------|
B|------------------------------------------------------------------------|
G|-1414141414141414-16161616-17171717-16161616-14141414-16161616-17171717-|
D|------------------------------------------------------------------------|
A|------------------------------------------------------------------------|
D|------------------------------------------------------------------------|

e|---------------------------------------------------------------|
B|---------------------------------------------------------------|
G|-16161616-14141414-17p16p1414-17p16p1414-17p16p1414-17p16p1414-|
D|---------------------------------------------------------------|
A|---------------------------------------------------------------|
D|---------------------------------------------------------------|

e|-20202020-19191919----------20202020-1919----------------------|
B|-------------------17171717---------------1717-15151515--------|
G|---------------------------------------------------------------|
D|---------------------------------------------------------------|
A|---------------------------------------------------------------|
D|---------------------------------------------------------------|

e|-15151515-1717171717171717-1919191919191919--------------------|
B|---------------------------------------------------------------|
G|---------------------------------------------------------------|
D|---------------------------------------------------------------|
A|---------------------------------------------------------------|
D|---------------------------------------------------------------|

e|-151515151515h19p-15151515h19p-15151515h19p-15151515h19p-------|
B|---------------------------------------------------------------|
G|---------------------------------------------------------------|
D|---------------------------------------------------------------|
A|---------------------------------------------------------------|
D|---------------------------------------------------------------|


e|-20202020-1919-1717-20p19p1717-20p19p1717-20p19p1717-20p19p1717-|
B|----------------------------------------------------------------|
G|----------------------------------------------------------------|
D|----------------------------------------------------------------|
A|----------------------------------------------------------------|
D|----------------------------------------------------------------|


4:11
e|-0-0-0-xx-|
B|-1-1-1-xx-|
G|-2-2-2-xx-|
D|-2-2-2-xx-|
A|-0-0-0-xx-| [x8]
D|-------xx-|



Guitar 2 - Left Speaker


0:13
e|-----------------------|-------------------------|
B|-----------------------|-------------------------|
G|-----------------------|-------14----12-------14-|
D|-------14----12--------|-12----------------------|
A|-12--------------------|-------------------------|
D|-----------------------|-------------------------|

e|-----------------------|-------------------------|----|
B|-----------------------|-------------------------|----|
G|-----------------------|-------14----12-------14-|----|
D|-------14----12--------|-12----------------------|----|
A|-12--------------------|-------------------------|-12-|
D|-----------------------|-------------------------|----|


0:32 - low volume, fade in, clean
e|-------------------|--------------------|--------------------|
B|-------------------|--------------------|--------------------|
G|-------------------|--------------------|--------------------|
D|-3--------2--------|--3--------2--------|--3--------2--------|
A|-5--------3--------|--5--------3--------|--5--------3--------|
D|-------------------|--------------------|--------------------|

0:49
e|-------------------------------|-------------------------|
B|-------------------------------|-------------------------|
G|-------5---------------------5/|/7--------5--------------|
D|----7-----7-5-7-3--5--2--3-7---|-------7-----7-5-3-2-----|
A|-5-----------------------------|----5----------------3/5-|
D|-------------------------------|-------------------------|


1:03 - close but not quite
e|---------------------------------------------------------------------------|
B|---------------------------------------------------------------------------|
G|-1010101010101010-12121212-9-9-9-9--1010101010101010-12-12-12-12-----------|
D|-x-x-x-x-x-x-x-x--x-x-x-x--x-x-x-x--x-x-x-x-x-x-x-x--x--x--x--x------------|
A|-8-8-8-8-8-8-8-8--10101010-7-7-7-7--8-8-8-8-8-8-8-8--10-10-10-10-----------|
D|-0-0-0-0-0-0-0-0--10101010-7-7-7-7--0-0-0-0-0-0-0-0--10-10-10-10---2-2-2-0-|

e|---------------------------------------------------------------|
B|-6--6-6--6----5--5-5--5----6--6-6--6---5--5-5--5---------------|
G|-7--7-7--7----5--5-5--5----7--7-7--7---5--5-5--5--9/-----------|
D|-x--x-x--x----x--x-x--x----x--x-x--x---x--x-x--x--x/-----------|
A|-5--5-5--5----3--3-3--3----5--5-5--5---3--3-3--3--7/-----------|
D|-0--0-0--0-----------------0--0-0--0--------------7/-----------|

e|---------------------------------------------------------------|
B|-6--6-6--6----5--5-5--5----6--6-6--6---5--5-5--5---------------|
G|-7--7-7--7----5--5-5--5----7--7-7--7---5--5-5--5--9-9----------|
D|-x--x-x--x----x--x-x--x----x--x-x--x---x--x-x--x--x-x----------|
A|-5--5-5--5----3--3-3--3----5--5-5--5---3--3-3--3--7-7----------|
D|-0--0-0--0-----------------0--0-0--0--------------7-7----------|
D|---------------------------------------------------------------|


1:32
e|------------------------------------------------|
B|------------------------------------------------|
G|------------------------------------------------|
D|----------------------0-0---0-0---0-0----/8-8\--|
A|----------------------0-0---0-0---0-0----/8-8\--|
D|-8888888877778888---5-0-0-5-0-0-5-0-0-5--/8-8\--|


1:38
e|----------------------------------|
B|----------------------------------|
G|----------------------------------|
D|-0----7----6----9----3----5----7--|
A|-0----7----6----9----3----5----7--|
D|-0----7----6----9----3----5----7--|


2:08
e|------------------------------|-------|
B|---------12-------------------|-------|
G|-----------------9--------12--|----5--|
D|-10---------------------------|----7--|
A|---------------[x4]-----------|----7--|
D|------------------------------|-------|


2:57
e|-----------------------------------------------------------------------|
B|-1010101010101010-8-8-8-8-8-8-8-8--8-8-8-8-8-8-8-8--6-6-6-6-6-6-6-6-6--|
G|-9-9-9-9-9-9-9-9--7-7-7-7-7-7-7-7--7-7-7-7-7-7-7-7--5-5-5-5-5-5-5-5-5--|
D|-7-7-7-7-7-7-7-7--5-5-5-5-5-5-5-5--5-5-5-5-5-5-5-5--3-3-3-3-3-3-3-3-3--|
A|-7-7-7-7-7-7-7-7--5-5-5-5-5-5-5-5--5-5-5-5-5-5-5-5--3-3-3-3-3-3-3-3-3--|
D|-7-7-7-7-7-7-7-7--5-5-5-5-5-5-5-5--5-5-5-5-5-5-5-5--3-3-3-3-3-3-3-3-3--|


3:47 - notes are close but not quite exact. I suspect 55xx8x or some other weird chord
e|-----------------------------------------------------------------------|
B|-1010101010101010-8-8-8-8-8-8-8-8--8-8-8-8-8-8-8-8--6-6-6-6-6-6-6-6-6--|
G|-9-9-9-9-9-9-9-9--7-7-7-7-7-7-7-7--7-7-7-7-7-7-7-7--5-5-5-5-5-5-5-5-5--|
D|-7-7-7-7-7-7-7-7--5-5-5-5-5-5-5-5--5-5-5-5-5-5-5-5--3-3-3-3-3-3-3-3-3--|
A|-7-7-7-7-7-7-7-7--5-5-5-5-5-5-5-5--5-5-5-5-5-5-5-5--3-3-3-3-3-3-3-3-3--|
D|-7-7-7-7-7-7-7-7--5-5-5-5-5-5-5-5--5-5-5-5-5-5-5-5--3-3-3-3-3-3-3-3-3--|


4:11
e|-0-0-0-xx-|
B|-1-1-1-xx-|
G|-2-2-2-xx-|
D|-2-2-2-xx-|
A|-0-0-0-xx-| [x8]
D|-------xx-|            
Submit corrections


        Shall Never Lose Its Power lessons Hard to play? Try these video lessons and learn fast Shall Never Lose Its Power lessons
        
↑ Back to top | Tablatures and chords for acoustic guitar and electric guitar, ukulele, drums are parodies/interpretations of the original songs. You may use it for private study, scholarship, research or language learning purposes only