» » »

La Dispute - Fall Down Never Get Back Up Again Tabs

Artists:  A B C D E F G H I J K L M N O P Q R S T U V W X Y Z # 

Fall Down Never Get Back Up Again Tabs

(ver. 1) Click to play this song!
La Dispute
 Rating:
4/5 (4 votes)

 Fall Down Never Get Back Up Again lessons Tabs too difficult? Try these video lessons and learn fast
 
                
**Tapping all the way through.

**Another guitar starts to play at 1:16 but I can't quite hear it well enough to tab it.

0:03
e|--------------------------------------------------------------------|
B|--------------------------------------------------------------------|
G|--------------------------------------------------------------------|
D|-7-------12p10-------5--7------12-7-12p10-12p10-------5--7------12--|
A|-7-------------12p7--5----12p5----7-------------12p7--5----12p5-----|
D|-7-------------------5------------7-------------------5-------------|

e|--------------------------------------------------------------------|
B|--------------------------------------------------------------------|
G|--------------------------------------------------------------------|
D|-7-12p10-12p10-------5--7------12-7-12p10-12p10-------5--7------12--|
A|-7-------------12p7--5----12p5----7-------------12p7--5----12p5-----|
D|-7-------------------5------------7-------------------5-------------|


0:17
e|--------------------------------------------------------------------|
B|--------------------------------------------------------------------|
G|---12p9--12p9------------------12---12p9--12p9------------------12--|
D|-7------------12p10--5--7---------7------------12p10--5--7----------|
A|-7-------------------5----12p5----7-------------------5----12p5-----|
D|-7-------------------5------------7-------------------5-------------|

e|--------------------------------------------------------------------|
B|--------------------------------------------------------------------|
G|---12p9--12p9------------------12---12p9--12p9------------------12--|
D|-7------------12p10--5--7---------7------------12p10--5--7----------|
A|-7-------------------5----12p5----7-------------------5----12p5-----|
D|-7-------------------5------------7-------------------5-------------|


0:31
e|--------------------------------------------------------------------|
B|---12p8--12p8------------------12---12p8--12p8------------------12--|
G|--------------12p9-----------------------------12p9-----------------|
D|-7-------------------5--7---------7-------------------5--7----------|
A|-7-------------------5----12p5----7-------------------5----12p5-----|
D|-7-------------------5------------7-------------------5-------------|

e|---------------------------------------------------------------------------12-|
B|---12p8--12p8------------------12---12p8--12p8------------------12------------|
G|--------------12p9-----------------------------12p9---------------------------|
D|-7-------------------5--7---------7-------------------5--7----------7----12---|
A|-7-------------------5----12p5----7-------------------5----12p5---------------|
D|-7-------------------5------------7-------------------5-----------------------|


"But the wind picked up"
e|-------------------------------------------------------------------|
B|-------------------------------------------------------------------|
G|----16p9-17p9-19p9-21p9-17p9--12/14p9----------------------[x4]----|
D|--------------------------------------14p10-12/14p10---------------|
A|-----------------------------------------------------12p7----------|
D|-7~-------------------------------------------------------10/12p7~-|


1:16
e|--------------------------------------------------------------------|
B|--------------------------------------------------------------------|
G|--------------------------------------------------------------------|
D|-7-------12p10-------5--7------12-7-12p10-12p10-------5--7------12--|
A|-7-------------12p7--5----12p5----7-------------12p7--5----12p5-----|
D|-7-------------------5------------7-------------------5-------------|

e|--------------------------------------------------------------------|
B|--------------------------------------------------------------------|
G|--------------------------------------------------------------------|
D|-7-12p10-12p10-------5--7------12-7-12p10-12p10-------5--7------12--|
A|-7-------------12p7--5----12p5----7-------------12p7--5----12p5-----|
D|-7-------------------5------------7-------------------5-------------|


1:31
e|--------------------------------------------------------------------|
B|--------------------------------------------------------------------|
G|---12p9--12p9------------------12---12p9--12p9------------------12--|
D|-7------------12p10--5--7---------7------------12p10--5--7----------|
A|-7-------------------5----12p5----7-------------------5----12p5-----|
D|-7-------------------5------------7-------------------5-------------|

e|--------------------------------------------------------------------|
B|--------------------------------------------------------------------|
G|---12p9--12p9------------------12---12p9--12p9------------------12--|
D|-7------------12p10--5--7---------7------------12p10--5--7----------|
A|-7-------------------5----12p5----7-------------------5----12p5-----|
D|-7-------------------5------------7-------------------5-------------|


1:45
e|--------------------------------------------------------------------|
B|---12p8--12p8------------------12---12p8--12p8------------------12--|
G|--------------12p9-----------------------------12p9-----------------|
D|-7-------------------5--7---------7-------------------5--7----------|
A|-7-------------------5----12p5----7-------------------5----12p5-----|
D|-7-------------------5------------7-------------------5-------------|

e|-------------------------------------------------------------------------12----|
B|---12p8--12p8------------------12---12p8--12p8------------------12-------------|
G|--------------12p9-----------------------------12p9----------------------------|
D|-7-------------------5--7---------7-------------------5--7----------7--12------|
A|-7-------------------5----12p5----7-------------------5----12p5-------------12-|
D|-7-------------------5------------7-------------------5------------------------|


1:58
e|-------------------------------------------------------------------|
B|-------------------------------------------------------------------|
G|----16p9-17p9-19p9-21p9-17p9--12/14p9----------------------[x4]----|
D|--------------------------------------14p10-12/14p10---------------|
A|-----------------------------------------------------12p7----------|
D|-7~-------------------------------------------------------10/12p-~-|


2:26
e|-----------------------|
B|-----------------------|
G|-9----9~---[x4]--------|
D|-10---9~---------------|
A|-7----7~---------------|
D|-7----7~---------------|
            
Submit corrections


        Fall Down Never Get Back Up Again lessons Hard to play? Try these video lessons and learn fast Fall Down Never Get Back Up Again lessons
        
↑ Back to top | Tablatures and chords for acoustic guitar and electric guitar, ukulele, drums are parodies/interpretations of the original songs. You may use it for private study, scholarship, research or language learning purposes only