» » »

La Dispute - Damaged Goods Tabs

Artists:  A B C D E F G H I J K L M N O P Q R S T U V W X Y Z # 

Damaged Goods Tabs

(ver. 1) Click to play this song!
La Dispute
 Rating:
4.3/5 (22 votes)

 Damaged Goods lessons Tabs too difficult? Try these video lessons and learn fast
 
                (0:00)
e|-----------------------------------------|
B|-----------6666--------------------------|
G|-7777-xxxx-7777-xxxx-5555-xxxx-7777-xxxx-| [x4]
D|-7777-xxxx-8888-xxxx-5555-xxxx-7777-xxxx-|
A|-5555-xxxx-5555-xxxx-7777-xxxx-5555-xxxx-|
D|-----------------------------------------|


(0:16)
e|----------------------------------------|---------------------------------------------------|
B|----------------------------------------|---------------------------------------------------|
G|----------------------------------------|---------------------------------------------------|
D|-3-0-------3-0-------3-0-------3-xx-xxx-|-3-0-------3-0-------3-0-------3-------------------|
A|-3-0-3/5p0-3-0-3/5p0-3-0-3/5p0-3-xx-xxx-|-3-0-3/5p0-3-0-3/5p0-3-0-3/5p0-3-------------------|
D|-3-0-------3-0-------3-0-------3-xx-xxx-|-3-0-------3-0-------3-0-------3-0h3h5-0h3h5-0-3-5-|

e|----------------------------------------|------------------------------------------------|
B|----------------------------------------|------------------------------------------------|
G|----------------------------------------|--------------------------------------------7*--|
D|-3-0-------3-0-------3-0-------3-xx-xxx-|-3-0-------3-0-------3-0--------------------7*--|
A|-3-0-3/5p0-3-0-3/5p0-3-0-3/5p0-3-xx-xxx-|-3-0-3/5p0-3-0-3/5p0-3-0-3/5p0------------------|
D|-3-0-------3-0-------3-0-------3-xx-xxx-|-3-0-------3-0-------3-0--------3p0-5p0-6p0-----|


(0:35)
e|---------------------------------------------------------------|
B|---------------------------------------------------------------|
G|---------------------------------------------------------------|
D|-----------------0--7-5-3-5-3---0---------------0--7-5-3-5-3-0-|
A|-----------------0--7-5-3-5-3---0---------------0--7-5-3-5-3-0-|
D|-----------------0--7-5-3-5-3---0---------------0--7-5-3-5-3-0-|


(0:43)
e|-------------------------------------------------------------------------|
B|-------------------------------------------------------------------------|
G|-7777-----------------------------------7777-----------------------------|
D|-xxxx-7-5-3-5-3-0--xxx-0-0-7-5-3-5-3-0--xxxx--7-5-3-5-3-0-xxx0xxx0xxxx0--|
A|-5555-7-5-3-5-3-0--xxx-0-0-7-5-3-5-3-0--5555--7-5-3-5-3-0-xxx0xxx0xxxx0--|
D|------7-5-3-5-3-0--xxx-0-0-7-5-3-5-3-0--------7-5-3-5-3-0-xxx0xxx0xxxx0--|


(0:55)
e|-------------------|
B|-------------------|
G|---7---------------|
D|-5-7---0/12\0------|
A|-5-0---0/12\0------|
D|-5-0---0/12\0------|


(1:00)
e|------------------------------|----------------------------|
B|--(5* = natural harmonic)-----|----------------------------|
G|------------------------------|----------------------------|
D|-0-33-0-5*------------0-xxx-x-|--0-33-0-5*-----------------|
A|-0-33-0-----333-------0-xxx-x-|--0-33-0----333-------------|
D|-0-33-0---------555-3-0-xxx-x-|--0-33-0---------555-3----3-|

e|------------------------------|----------------------------|
B|------------------------------|----------------------------|
G|------------------------------|----------------------------|
D|-0-33-0-5*------------0-xxx-x-|--0-33-0-5*-----------------|
A|-0-33-0-----333-------0-xxx-x-|--0-33-0----333-------------|
D|-0-33-0---------555-3-0-xxx-x-|--0-33-0---------555-3----3-|


(1:19)
e|----------------------------------------|---------------------------------------------------|
B|----------------------------------------|---------------------------------------------------|
G|----------------------------------------|---------------------------------------------------|
D|-3-0-----------------3-0---------xx-xxx-|-3-0-------3-0-----------------3-------------------|
A|-3-0-----------3/5p0-3-0---------xx-xxx-|-3-0-3/5p0-3-0-----------3/5p0-3-------------------|
D|-3-0-----------------3-0---------xx-xxx-|-3-0-------3-0-----------------3-0h3h5-0h3h5-0-3-5-|

e|----------------------------------------|------------------------------------------------|
B|----------------------------------------|------------------------------------------------|
G|----------------------------------------|------------------------------------------------|
D|-3-0-------3-0-------3-0-------33335555-|-3-0-------3-0-------3-0-------3333--5-5-5-0----|
A|-3-0-3/5p0-3-0-3/5p0-3-0-3/5p0-33335555-|-3-0-3/5p0-3-0-3/5p0-3-0-3/5p0-3333--5-5-5-0----|
D|-3-0-------3-0-------3-0-------33335555-|-3-0-------3-0-------3-0-------3333--5-5-5-0----|


(1:41)
e|-----------------------------------------------------|
B|-----------------------------------------------------|
G|-----------------------------------------------------|
D|-----------------3---------------5-----------------0-|
A|-----------------3---------------5-----------------0-|
D|-----------------3---------------5-------5---5-----0-|

e|-----------------------------------------------------|
B|-----------------------------------------------------|
G|-----------------------------------------------------|
D|-----------------3---------------5-----------------0-|
A|-----------------3---------------5-----------------0-|
D|-----------------3---------------5-------5---5-----0-|

e|-----------------------------------------------------|
B|-----------------------------------------------------|
G|-----------------------------------------------------|
D|-----------------3---------------5-----------------0-|
A|-----------------3---------------5-----------------0-|
D|-0-0-0-0-0-0-0-0-3---------------5-------5---5-----0-|

e|-----------------------------------------------------|
B|-----------------------------------------------------|
G|-----------------------------------------------------|
D|-0-------------------------------------------------0-|
A|-0-------------------------------------------------0-|
D|-0~--------------3-3-3-3-3-3-3-3-5-5-5-5-5-5-5-5---0-|


(2:31)
e|-----------------------------------------------------|
B|-----------------------------------------------------|
G|-----------------------------------------------------| [x3]
D|-0-------------------------------------------------0-|
A|-0-------------------------------------------------0-|
D|-0~--------------3-3-3-3-3-3-3-3-5-5-5-5-5-5-5-5---0-|



== GUITAR TWO ==


(0:00)
e|-----------------------------------------|
B|-----------------------------------------|
G|-7777-xxxx-9999-xxxx-5555-xxxx-7777-xxxx-| [x2]
D|-7777-xxxx-8888-xxxx-xxxx-xxxx-xxxx-xxxx-|
A|-5555-xxxx-5555-xxxx-7777-xxxx-5555-xxxx-|
D|-----------------------------------------|

e|-----------------------------------------|
B|-----------------------------------------|
G|-7777-xxxx-9999-xxxx-1212-xxxx-1414-xxxx-| [x2]
D|-7777-xxxx-8888-xxxx-xxxx-xxxx-xxxx-xxxx-|
A|-5555-xxxx-5555-xxxx-1010-xxxx-1212-xxxx-|
D|-----------------------------------------|

(0:16)
e|----------------------------------------|---------------------------------------------------|
B|----------------------------------------|---------------------------------------------------|
G|----------------------------------------|---------------------------------------------------|
D|---------------------------------xx-xxx-|---------------------------------------------------|
A|---------------------------------xx-xxx-|---------------------------------------------------|
D|---------------------------------xx-xxx-|-----------------------------------3h5-0h3h5-0-3-5-|

e|----------------------------------------|------------------------------------------------|
B|----------------------------------------|------------------------------------------------|
G|----------------------------------------|------------------------------------------------|
D|-3-0-------3-0-------3-0-------3-xx-xxx-|-3-0-------3-0-------3-0--------------------0---|
A|-3-0-3/5p0-3-0-3/5p0-3-0-3/5p0-3-xx-xxx-|-3-0-3/5p0-3-0-3/5p0-3-0-3/5p0--------------0---|
D|-3-0-------3-0-------3-0-------3-xx-xxx-|-3-0-------3-0-------3-0--------3p0-5p0-6p0-0---|

e|------------------------------------------------|
B|------------------------------------------------|
G|------------------------------------------------|
D|-xx-xx-xx-xx-xx-xx-xx-xx-0-xx-xx-xx-7-5-3-5-3-0-|
A|-xx-xx-xx-xx-xx-xx-xx-xx-0-xx-xx-xx-7-5-3-5-3-0-|
D|-xx-xx-xx-xx-xx-xx-xx-xx-0-xx-xx-xx-7-5-3-5-3-0-|

e|------------------------------------------------|
B|------------------------------------------------|
G|------------------------------------------------|
D|-xx-xx-xx-xx-xx-xx-xx-xx-0-xx-xx-xx-7-5-3-5-3-0-|
A|-xx-xx-xx-xx-xx-xx-xx-xx-0-xx-xx-xx-7-5-3-5-3-0-|
D|-xx-xx-xx-xx-xx-xx-xx-xx-0-xx-xx-xx-7-5-3-5-3-0-|


(0:42)
e|-----------------------------------------------------------------------------------|
B|-----------------------------------------------------------------------------------|
G|-7777---------------------------------7777-----------------------------------------|
D|-xxxx-7-5-3-5-3-0-xx-0-xx-7-5-3-5-3-0-xxxx-7-5-3-5-3-0-xx-xx-x-0-x-xx-x-0-x-xx-x-0-|
A|-5555-7-5-3-5-3-0-xx-0-xx-7-5-3-5-3-0-5555-7-5-3-5-3-0-xx-xx-x-0-x-xx-x-0-x-xx-x-0-|
D|------7-5-3-5-3-0-xx-0-xx-7-5-3-5-3-0------7-5-3-5-3-0-xx-xx-x-0-x-xx-x-0-x-xx-x-0-|


(0:55)
e|-------------------|
B|-------------------|
G|---7---------------|
D|-5-7---------------|
A|-5-0---------------|
D|-5-0---------------|



(1:00)
e|------------------------------|----------------------------|
B|--(5* = natural harmonic)-----|----------------------------|
G|------------------------------|----------------------------|
D|-0-33-0-5*------------0-xxx-x-|--0-33-0-5*-----------------|
A|-0-33-0-----333-------0-xxx-x-|--0-33-0----333-------------|
D|-0-33-0---------555-3-0-xxx-x-|--0-33-0---------555-3----3-|

e|------------------------------|----------------------------|
B|------------------------------|----------------------------|
G|------------------------------|----------------------------|
D|-0-33-0-5*------------0-xxx-x-|--0-33-0-5*-----------------|
A|-0-33-0-----333-------0-xxx-x-|--0-33-0----333-------------|
D|-0-33-0---------555-3-0-xxx-x-|--0-33-0---------555-3----3-|
 

(1:19)
e|----------------------------------------|---------------------------------------------------|
B|----------------------------------------|---------------------------------------------------|
G|----------------------------------------|---------------------------------------------------|
D|-3-0-------3-0-----------------3-xx-xxx-|---------------------3-0---------------------------|
A|-3-0-3/5p0-3-0-----------3/5p0-3-xx-xxx-|---------------3/5p0-3-0---------------------------|
D|-3-0-------3-0-----------------3-xx-xxx-|---------------------3-0-----------3h5-0h3h5-0h3h5-|

e|----------------------------------------|------------------------------------------------|
B|----------------------------------------|------------------------------------------------|
G|----------------------------------------|------------------------------------------------|
D|-3-0-------3-0-------3-0-------33335555-|-3-0-------3-0-------3-0-------33-0--5-5-5-0---0|
A|-3-0-3/5p0-3-0-3/5p0-3-0-3/5p0-33335555-|-3-0-3/5p0-3-0-3/5p0-3-0-3/5p0-33-0--5-5-5-0---0|
D|-3-0-------3-0-------3-0-------33335555-|-3-0-------3-0-------3-0-------33-0--5-5-5-0---0|


(1:41)
e|-----------------------------------------------------|
B|-----------------------------------------------------|
G|-----------------------------------------------------|
D|-----------------3---------------5-----------------0-|
A|---------3-5-3-0-3---------------5-----------------0-|
D|-----------------3---------------5-----------------0-|

e|-----------------------------------------------------|
B|-----------------------------------------------------|
G|-----------------------------------------------------|
D|-----------------3---------------5-----------------0-|
A|-----------------3---------------5-----------------0-|
D|-----------------3---------------5-----------------0-|
 
e|-----------------------------------------------------|
B|-----------------------------------------------------|
G|---------5-7-5---------------------------------------|
D|---------x-x-x---3---------------5-----------------0-|
A|---------3-5-3---3---------------5-----------------0-|
D|-----------------3---------------5-----------------0-|

e|-----------------------------------------------------|
B|-----------------------------------------------------|
G|-----------------------------------------------------|
D|-----------------3---------------5-----------------0-|
A|-----------------3---------------5-----------------0-|
D|-----------------3---------------5-----------------0-|

e|-----------------------------------------------------|
B|-----------------------------------------------------|
G|-----------------------------------------------------|
D|-0---------------3-3-3-3-3-3-3-3-5-5-5-5-5-5-5-5---0-|
A|-0---------------3-3-3-3-3-3-3-3-5-5-5-5-5-5-5-5---0-|
D|-0---------------3-3-3-3-3-3-3-3-5-5-5-5-5-5-5-5---0-|

e|-----------------------------------------------------|
B|-----------------------------------------------------|
G|-----------------------------------------------------|
D|-0---------------3-3-3-3-3-3-3-3-5-5-5-5-5-5-5-5---0-|
A|-0---------------3-3-3-3-3-3-3-3-5-5-5-5-5-5-5-5---0-|
D|-0---------------3-3-3-3-3-3-3-3-5-5-5-5-5-5-5-5---0-|
 

(2:31)
e|---------------------------------------------------------------|
B|-15-----13-----10----13----------------------------------------|
G|-17b19--15b17--12b14----14br12-12-12\----------------------10--|
D|-----------------------------------------10----10-12-10-12-----|
A|---------------------------------------12---12-----------------|
D|---------------------------------------------------------------|

e|----------------------------------------------------------------------|
B|----------------------------------------------------------------------|
G|-------------------------------15p14p12-----------------------12------|
D|-10--15\12----10-12-12-12---------------15p14p12----15-12-------------|
A|----------------------------------------------------------15----------|
D|----------------------------------------------------------------------|

E|---15p10h13------------------------------------------------------------|
B|------------15p10h13---------------------------------------------------|
G|---------------------14p10h12----------14p10h12----------12-12-12-12---|
D|------------------------------15p10h12----------15p10h12---------------|
A|--*tapping*------------------------------------------------------------|
D|-----------------------------------------------------------------------|

e|----0--0-|
B|-3--3--5-|
G|-2--2--4-|
D|---------|
A|-0--0--0-|
D|-0--3--5-|
            
Submit corrections


        Damaged Goods lessons Hard to play? Try these video lessons and learn fast Damaged Goods lessons
        
↑ Back to top | Tablatures and chords for acoustic guitar and electric guitar, ukulele, drums are parodies/interpretations of the original songs. You may use it for private study, scholarship, research or language learning purposes only