» » »

La Dispute - A Broken Jar Tabs

Artists:  A B C D E F G H I J K L M N O P Q R S T U V W X Y Z # 

A Broken Jar Tabs

(ver. 1) Click to play this song!
La Dispute
 Rating:
4.3/5 (24 votes)

 A Broken Jar lessons Tabs too difficult? Try these video lessons and learn fast
 
                0:07
e|---|----|---|
B|-6-|-6--|---|
G|-5-|-5--|-5-|
D|-3-|-3--|-3-|
A|---|-4--|-4-|
E|---|----|-6-|

0:23
e|---|----|---| |---|
B|-6-|-6--|---| |---|  
G|-5-|-5--|-5-| |-5-|
D|-3-|-3--|-3-| |-3-|
A|---|-4--|-4-| |---|
E|---|----|-6-| |-4-|

0:39
e|----------------------------------------------|
B|----------------------------------------------|
G|----3-1-------3-----6-----6--8--6----5--6--5--|
D|--------3-------------------------------------|
A|----------------------------------------------|
E|--1---------2-----2-----6----------5----------|

e|------------------------------|
B|------------------------------|
G|------------------------------|
D|-7-7-7------------------6-6-6-|
A|-8-8-8------------------x-x-x-|
E|-5-5-5--6-6-6--8-8-8-8--5-5-5-|

0:49
e|---|---|---|---|---|---|---|----|
B|---|---|---|---|---|---|---|----|
G|-3-|-3-|-3-|-3-|-3-|-3-|---|----|
D|-4-|-3-|-4-|-3-|-3-|-3-|-2-|-2~-|
A|-x-|-x-|-6-|-5-|-4-|-3-|-3-|-3~-|
E|-2-|-1-|---|---|---|---|-3-|-3~-|

1:08
e|---|----|---|
B|-6-|-6--|---|
G|-5-|-5--|-5-|
D|-3-|-3--|-3-|
A|---|-4--|-4-|
E|---|----|-6-|

1:39
e|---|----|---| |---|
B|-6-|-6--|---| |---|  
G|-5-|-5--|-5-| |-5-|
D|-3-|-3--|-3-| |-3-|
A|---|-4--|-4-| |---|
E|---|----|-6-| |-4-|

1:49
e|----------------------------------------------|
B|----------------------------------------------|
G|----3-1-------3-----6-----6--8--6----5--6--5--|
D|--------3-------------------------------------|
A|----------------------------------------------|
E|--1---------2-----2-----6----------5----------|


== lead == 

0:00
e|-------3--333-3---------4-|
B|-----5----------5---------|
G|---4--------------4-------|
D|-2------------------2-3---|
A|--------------------------|
E|--------------------------|

e|---|----|---|
B|-6-|-6--|---|
G|-5-|-5--|-5-|
D|-3-|-3--|-3-|
A|---|-4--|-4-| 
E|---|----|-6-|


0:23
e|-----------------|-----------------|-----------------|-----------------|
B|-6-4-------------|-------6---------|-----------------|-----------------|
G|-5-5-5-----------|---5-------------|-----------------|-----------------|
D|-3---------------|-----3-----------|-----------------|-----------------|
A|-----------------|-4---------------|-----------------|-----------------|
E|-----------------|-----------------|-----------------|-----------------|

e|-----------------|-----------------|-----------------|-----------------|
B|-----------------|-----------------|-----------------|-----------------|
G|-----------------|-----------------|-----------------|-----------------| 
D|-----------------|-----------------|-----------------|----------6--6---|
A|-----------------|-----------------|-----------------|-----------------|
E|-----------------|-----------------|-----------------|-----------------|


0:39
e|-----------------|-----------------|-----------------|-----------------|
B|-----------------|-----------------|-----------------|-----------------|
G|---3-5-3---------|---3-------5h6---|---------------6-|-5-5-5-5---------|
D|-3--(6)----------|-4---4/6---------|-(8)-------------|-----------------|
A|-----------------|-----------------|-----------------|-----------------|
E|-----------------|-----------------|-----------------|-----------------|


0:49
e|-----------------|--------4h6-4----|-----------------|-----------------|
B|-----------------|-6-6-6--6-6-6----|---6---4---------|-----------------|
G|-10-10-10-10-----|-5-5-5--5-5-5----|---5---5---------|-3---------------|
D|-----------------|-----------------|-----------------|-3---------------|
A|-----------------|-----------------|-4---------------|-----------------|
E|-----------------|-----------------|-----------------|-----------------|

e|-----------------|--1--------------|-3---------------|-7^--------------|
B|-6---------------|--2--------------|-5---------------|-----------------|
G|-3---------------|--3--------------|-0---------------|-0---------------|
D|-3---------------|--3--------------|-----------------|-----------------|
A|-----------------|-----------------|-----------------|-----------------|
E|-----------------|-----------------|-----------------|-----------------|


1:08
e|-----------------|-----------------|-----------------|-----------------|
B|-----------------|-----------------|-----------------|-----------------|
G|-----------------|-----------------|------------5-3--|--5-3-2-0--1/3-3-|
D|---1---3---------|-1---------------|--------1-3------|-----------------|
A|-3---3-----------|-----------------|-----------------|-----------------|
E|-----------------|-----------------|-----------------|-----------------|

e|-----------------|-----------------|-----------------|-----------------|
B|-------1---------|-----------------|-----------------|-----------------|
G|-----1-----------|-5-3-p0----------|-----------------|----------3--5---|
D|-1-3-------------|--------3/5/6----|-----------------|-----------------|
A|-----------------|-----------------|-----------------|-----------------|
E|-----------------|-----------------|-----------------|-----------------|

1:39
e|-----------------|-----------------|-----------------|-----------------|
B|-----------------|-----------------|----4--4-6-------|-----------------|
G|----3-5-3--------|-----3-x-3/5-----|-6---------------|--5--6-----8-----|
D|-----------------|-3-x-------------|-----------------|-----------------|
A|-----------------|-----------------|-----------------|-----------------|
E|-2---------------|-----------------|-----------------|-----------------|
            
Submit corrections


        A Broken Jar lessons Hard to play? Try these video lessons and learn fast A Broken Jar lessons
        
↑ Back to top | Tablatures and chords for acoustic guitar and electric guitar, ukulele, drums are parodies/interpretations of the original songs. You may use it for private study, scholarship, research or language learning purposes only