» » »

Lacuna Coil - Tight Rope Tabs

Artists:  A B C D E F G H I J K L M N O P Q R S T U V W X Y Z # 

Tight Rope Tabs

(ver. 1) Click to play this song!
Lacuna Coil
 Rating:
4/5 (4 votes)

 Tight Rope lessons Tabs too difficult? Try these video lessons and learn fast
 
                Band - Lacuna Coil
Album - Comalies
Song - Tight Rope
Tuning - Low to high (BEADGbe)

I don't know the lead guitar for the life of me... Sorry

Intro
e|----------|
b|----------|
G|----------|
D|----------|
A|-22-22-22-|
E|-00-00-00-|
B|----------|
   .. .. ..

Pre-verse
e|---------------------------|
b|---------------------------|
G|---------------------------|
D|---------------------------|
A|-2--2-2-2-2-2--2-2-2-2-2-2-|
E|-0--0-0-0-1-0--0-0-0-0-1-0-|
B|---------------------------|
      . .        .   . 

Pre-chorus
e|--------------|
b|--------------|
G|--------------|
D|--------------|
A|-2--2-2-2-2---|
E|-0--0-0-0-0-5-|
B|------------3-|
      . .

Chorus
e|---------------------------------------------|
b|---------------------------------------------|
G|---------------------------------------------|
D|---------------------------------------------|
A|-2---5-4-5-----5-4-5-2---5-4-5---------------|
E|-0---3-2-3-3---3-2-3-0---3-2-3-3---55-55-55*-|
B|-----------1-------------------1---33-33-33*-|

Bridge
e|-------------|
b|-------------|
G|-------------|
D|-------------|
A|-22222-22222-|
E|-00000-00000-|
B|-------------|

Order

Intro
Pre-verse 4x
Pre-chorus 2x
Chorus 2x
Pre-verse 4x
Pre-chorus 2x
Chorus 2x
Bridge 8x
Chorus 4x Leave out note with * last time through

Thanks to Ryknowcore for the corrections, sounds better now.
            
Submit corrections


        Tight Rope lessons Hard to play? Try these video lessons and learn fast Tight Rope lessons
        
↑ Back to top | Tablatures and chords for acoustic guitar and electric guitar, ukulele, drums are parodies/interpretations of the original songs. You may use it for private study, scholarship, research or language learning purposes only