» » »

Lacuna Coil - Spellbound Tabs

Artists:  A B C D E F G H I J K L M N O P Q R S T U V W X Y Z # 

Spellbound Tabs

(ver. 1) Click to play this song!
Lacuna Coil
 Rating:
3.4/5 (5 votes)

 Spellbound lessons Tabs too difficult? Try these video lessons and learn fast
 
                Key:
p = Pull off
~ = Let Ring
\ = Slide Down
* = Natural Harmonic


Drop D Tuning



Intro

E|--------------------------------|
B|--------------------------------|
G|--------------------------------| x4
D|--------------------------------|
A|-8p7----8p7-8p7-----8p7-8p7-----|
D|-----7-7--------7-7---------7-7-|

Pre verse/Chorus

E|--------------------------------------|
B|----------------------5-----x-x--7----|
G|----------------------5 x8--x-x--7 x8-|
D|-7------3------0------3-----x-x--5----| x2
A|-7 x16--3 x16--0 x16------------------|
D|-7------3------0----------------------|

Verse 1

E|-------------|                          E|-------------|
B|-------------|                          B|-------------|
G|-------------|  3rd and 6th time I go   G|-------------|
D|-7-7-7-7--7~-|                          D|-7-7-7-7--3~-|
A|-7-7-7-7--7~-|                          A|-7-7-7-7--3~-|
D|-7-7-7-7--7~-|                          D|-7-7-7-7--3~-|


E|-----------|  "A mourn Day"
B|-----------|
G|-5~-4~-----|
D|-5~-4~-----|
A|-3~-2~-----|
D|-----------|


Chorus

E|--------------------------------------|
B|----------------------5-----x-x--7----|
G|----------------------5 x8--x-x--7 x8-|
D|-7------3------0------3-----x-x--5----| x2
A|-7 x16--3 x16--0 x16------------------|
D|-7------3------0----------------------|


Pre verse

E|--------------------------------|
B|--------------------------------|
G|--------------------------------| x4
D|--------------------------------|
A|-7p5----7p5-7p5-----7p5-7p5-----|
D|-----7-7--------7-7---------7-7-|


Verse 2


E|-------------|                          E|-------------|
B|-------------|                          B|-------------|
G|-------------|  3rd and 6th time I go   G|-------------|
D|-7-7-7-7--7~-|                          D|-7-7-7-7--3~-|
A|-7-7-7-7--7~-|                          A|-7-7-7-7--3~-|
D|-7-7-7-7--7~-|                          D|-7-7-7-7--3~-|

E|-----------|  "A mourn Day"
B|-----------|
G|-5~-4~-----|
D|-5~-4~-----|
A|-3~-2~-----|
D|-----------|


Chorus

E|--------------------------------------|
B|----------------------5-----x-x--7----|
G|----------------------5 x8--x-x--7 x8-|
D|-7------3------0------3-----x-x--5----| x2
A|-7 x16--3 x16--0 x16------------------|
D|-7------3------0----------------------|


Pre Solo

E|--------------------------------|
B|--------------------------------|
G|--------------------------------| x4
D|--------------------------------|
A|-8p7----8p7-8p7-----8p7-8p7-----|
D|-----7-7--------7-7---------7-7-|

Solo - Now, there are two ways to play this solo, one way by using octaves and the other
single note tremelo picking, im going to TAB the single note picking, because, you 
be able to work out the octave way of doing it.

E|-----------------------------------------------------------------|
B|-----------------------------------------------------------------|
G|-14 x15-\9 x15--19-19-19-17-17-17-21-21-21-19-19-19-22-22-21-21--|
D|-----------------------------------------------------------------|
A|-----------------------------------------------------------------|
D|-----------------------------------------------------------------|

This part requires slide harmonics. Harmonic on the 6th fret of the G string and slide 
on the fret board, whilst lightly touching the string, therefore creating a harmonic.

E|--------|
B|--------|
G|-6*\2*--|
D|--------|
A|--------|
D|--------|

E|----------------------------------------------------------------------|
B|----------------------------------------------------------------------|
G|-14-14-14-14-14-14-14-14-16-16-16-16-17-17-17-21-21-21-21-21-21-21-21-|
D|----------------------------------------------------------------------|
A|----------------------------------------------------------------------|
D|----------------------------------------------------------------------|

E|------------------------------------------|
B|----21-21----21-21----21-21-----21-21-----|
G|-22-------20-------22--------20-------22--|
D|------------------------------------------|
A|------------------------------------------|
D|------------------------------------------|

E|--------------------|
B|--20p22-------------|
G|--------21----------|
D|-------------17\----|
A|-------------17\----|
D|-------------17\----|

End of Solo


Chorus

First time play this

E|--------------------------------------|
B|----------------------5-----x-x--7----|
G|----------------------5 x8--x-x--7 x8-|
D|-7------3------0------3-----x-x--5----| x2
A|-7 x16--3 x16--0 x16------------------|
D|-7------3------0----------------------|

Second Time play this

E|---------------------------------------|
B|---------------------------------------|
G|---------------------------------------|
D|-7------3------0------2----------------|
A|-7 x16--3 x16--0 x24--2 x8-------------|
D|-7------3------0------2----------------|

E|--------------------------------------|
B|----------------------5-----x-x--7----|
G|----------------------5 x8--x-x--7 x8-|
D|-7------3------0------3-----x-x--5----| x2
A|-7 x16--3 x16--0 x16------------------|
D|-7------3------0----------------------|

E|----------|
B|----------|
G|----------|
D|-7-7-7-7\-|
A|-7-7-7-7\-|
D|-7-7-7-7\-|
            
Submit corrections


        Spellbound lessons Hard to play? Try these video lessons and learn fast Spellbound lessons
        
↑ Back to top | Tablatures and chords for acoustic guitar and electric guitar, ukulele, drums are parodies/interpretations of the original songs. You may use it for private study, scholarship, research or language learning purposes only