» » »

Kyla - Hanggang Ngayon Tabs

Artists:  A B C D E F G H I J K L M N O P Q R S T U V W X Y Z # 

Hanggang Ngayon Tabs

(ver. 1) Click to play this song!
Kyla
 Rating:
2.9/5 (30 votes)

 Hanggang Ngayon lessons Tabs too difficult? Try these video lessons and learn fast
 
                E|--5------------------2--5-----13--15--2--2h3-----5--2--0-----------0--]
B|--------3--2--2h3h5--------3------------------3--5--------------2-----]
G|-----2-------------------------------------------------------2--------]
D|--0-------------------------------------------------------2-----------]
A|------------------------2-------------3----------------0--------------]
E|----------------------------------------------------------------------]
Intro: D--Bm--G--A--

Verse 1:

E|-----2-----------2--------3--2--------------]
B|--------------------2-----------2--3--5--3--]
G|--------------3--------3-----------------4--]
D|-----------4-----------------------------4--]
A|--------4-----------------------------2--2--]
E|--3--2--------------------2-----------------]
F#m             Bm
 Sa 'king pag-iisa

E|--------------0--2-----------]
B|--3--2--1--3--3--3--3--------]
G|--------------2--2-----------]
D|--------------0-----------0--]
A|--2--1--0--------------2-----]
E|--------------------3--------]
 Am  D   G
 Ala-ala ka

E|--2--0-----0--2-----]
B|--------3--------3--]
G|--------------------]
D|--------------------]
A|-----------------2--]
E|-----------2--------]
          F#m     Bm
Bakit hanggang ngayon

E|--0--2--3--2--0-----0--0--------0--]
B|--------0--------3--1-----1-----2--]
G|--------------------0--------0--2--]
D|--------------------2-----------2--]
A|--------------------3-----------0--]
E|--------0--------------------------]
    Em             C A
Ay ikaw pa rin sinta

E|-----2-----------2--------3--2--------------]
B|--------------------2-----------2--3--5--3--]
G|--------------3--------3-----------------4--]
D|-----------4-----------------------------4--]
A|--------4-----------------------------2--2--]
E|--3--2--------------------2-----------------]
F#m            Bm
Pag sa hatinggabi

E|--------------0--2-----------]
B|--3--2--1--3--3--3--3--------]
G|--------------2--2-----------]
D|--------------0-----------0--]
A|--2--1--0--------------2-----]
E|--------------------3--------]
Am    D     G
Sa pagtulog mo

E|--2--0-----0--2-----]
B|--------3--------3--]
G|--------------------]
D|--------------------]
A|-----------------2--]
E|-----------2--------]
         F#m  Bm 
Hanap mo ba  ako

E|--0--2--3--2--5--2--0--0--------0--]
B|--------0-----------1-----1-----2--]
G|--------------------0--------0--2--]
D|--------------------2-----------2--]
A|--------------------3-----------0--]
E|--------0--------------------------]
         Em           C  A
Hanggang sa paggising mo

Refrain 1:

E|-----0--2--3--0-------0--2--------------------3-----0--]
B|--3-----3--------2h3--------3--2--0--------------0--2--]
G|----------------------------2--------------0--------2--]
D|----------------------------------------0-----------2--]
A|----------------------2-----0--------2--------------0--]
E|--------3-----2-------------------3--------------------]
      G    F#m     Bm   A     G   A
Kailanman ika'y iniibig ng tunay

Chorus:

E|--------2--------]
B|--5--3-----5--3--]
G|--2--------------]
D|--0--------------]
A|-----------------]
E|-----------------]
 D
 Wag mong limutin

E|--------2--------]
B|--5--3-----5--3--]
G|--2--------------]
D|-----------------]
A|--2--------------]
E|-----------------]
Bm
Pag-ibig sa akin

E|--2--5--3--2--0--------------0--]
B|--------0--------3-----------2--]
G|--------------------2-----2--2--]
D|-----------------------2-----2--]
A|--------------------0--------0--]
E|--------0-----------------------]
    Em         A
Na iyong pinadama

E|--------2--------]
B|--5--3-----5--3--]
G|--2--------------]
D|--0--------------]
A|-----------------]
E|-----------------]
 D
Pintig ng puso'y

E|--5--------------]
B|-----3--3--2--3--]
G|-----------------]
D|-----------------]
A|--2--------------]
E|-----------------]
Bm 
Wag nang itago

E|--2--5--3--2--0-----]
B|--------0--------3--]
G|--------------------]
D|--------------------]
A|--------------------]
E|--------0-----------]
    Em
Sa isang kahapong

E|--3--2--0-----2-----------]
B|--2--------3-----------3--]
G|--------------------4-----]
D|-----------------4--------]
A|--0-----------2-----------]
E|--------------------------]
A           Bm
sana'y magbalik

E|-----------2-----2--2--------------0--]
B|--3--3--5-----5--------5--3--------0--]
G|-----------------------------------0--]
D|--------------------------------2--2--]
A|--------2--------------------2-----2--]
E|-----------------------0--------------] 
                 Em
Ng mapawi ang pagluha

E|-----------------]
B|--3--2--0--2--3--]
G|-----------------]
D|-----------------]
A|-----------------]
E|--------3--------]
          G
Ba't hanggang ngayon


E|-----0--2--3--0-----------]
B|--3--------------3--2--3--]
G|--------------------------]
D|--------------------------]
A|--------0-----------------]
E|--------------------------]
     A
Ay ikaw pa rin ang mahal

E|--5------------------2--5-----13--15--2--2h3-----5--2--0-----------0--]
B|--------3--2--2h3h5--------3------------------3--5--------------2-----]
G|-----2-------------------------------------------------------2--------]
D|--0-------------------------------------------------------2-----------]
A|------------------------2-------------3----------------0--------------]
E|----------------------------------------------------------------------]
Interlude: D--Bm--G--A--

Verse 2:

E|-----2-----------2--------3--2--------------]
B|--------------------2-----------0--2--5--3--]
G|--------------3--------3-----------------4--]
D|-----------4-----------------------------4--]
A|--------4-----------------------------2--2--]
E|--3--2--------------------2-----------------]
F#m         Bm
Di  makapaniwala

E|--------------0--2-----------]
B|--3--2--1--3--3--3--3--------]
G|--------------2--2-----------]
D|--------------0-----------0--]
A|--2--1--0--------------2-----]
E|--------------------3--------]
       Am       D    G
Sa nagawa mong paglisan

E|--2--0-----0--2-----]
B|--------3--------3--]
G|--------------------]
D|--------------------]
A|-----------------2--]
E|-----------2--------]
        F#m    Bm
O kay bilis namang

E|--0--2--3--2--5--2--0--0--------0--]
B|--------0-----------1-----1-----2--]
G|--------------------0--------0--2--]
D|--------------------2-----------2--]
A|--------------------3-----------0--]
E|--------0--------------------------]
    Em         C  A
Nawala ka sa akin

E|-----2-----------2--------3--2--------------]
B|--------------------2-----------0--2--5--3--]
G|--------------3--------3-----------------4--]
D|-----------4-----------------------------4--]
A|--------4-----------------------------2--2--]
E|--3--2--------------------2-----------------]
F#m              Bm
 O   ang larawan mo

E|--------------0-----7--------]
B|--3--2--1--3--3--3-----3-----]
G|--------------2-----------4--]
D|--------------0--------------]
A|--2--1--0--------------------]
E|--------------------3--------]
Am     D   G
Kahit sandali

E|--7--5--3--5/7--2--]
B|----------------3--]
G|-------------------]
D|-------------------]
A|----------------2--]
E|-----------2-------]
       F#m    Bm
Laging minamasdan 

E|-----2--3--3--7--3--5--]
B|--5-----0-----------5--]
G|--------------------6--]
D|--------------------7--]
A|--------------------7--]
E|--------0-----------5--]
     Em             C A
Para bang kapiling ka

Refrain 2:

E|-----0--2--3--0-------0--2-----------------------------0--]
B|--3-----3--------2h3--------3--2--2--0--------------2--2--]
G|----------------------------2--------------------2-----2--]
D|----------------------------------------------2--------2--]
A|----------------------2-----0--------------0--------------]
E|--------3-----2-------------------3-----3-----------------]
     G    F#m  Bm    A       G  A
Dati kayligaya mo sa piling ko

Chorus:

E|--------2--------]
B|--5--3-----5--3--]
G|--2--------------]
D|--0--------------]
A|-----------------]
E|-----------------]
D
Wag mong limutin

E|--------2--------]
B|--5--3-----5--3--]
G|--2--------------]
D|-----------------]
A|--2--------------]
E|-----------------]
Bm
Pag-ibig sa akin

E|--2--5--3--2--0--------------0--]
B|--------0--------3-----------2--]
G|--------------------2-----2--2--]
D|-----------------------2-----2--]
A|--------------------0--------0--]
E|--------0-----------------------]
    Em           A
Na iyong pinadama

E|--------2--------]
B|--5--3-----5--3--]
G|--2--------------]
D|--0--------------]
A|-----------------]
E|-----------------]
 D
Pintig ng puso'y

E|--5--------------]
B|-----3--3--2--3--]
G|-----------------]
D|-----------------]
A|--2--------------]
E|-----------------]
Bm 
Wag nang itago

E|--2--5--3--2--0-----]
B|--------0--------3--]
G|--------------------]
D|--------------------]
A|--------------------]
E|--------0-----------]
    Em
Sa isang kahapong

E|--0--2--5--2--9--7--]
B|--2--------------7--]
G|--2--------------7--]
D|--2--------------9--]
A|--0--------------9--]
E|--------------7--7--]
 A           Bm
Sana'y magbalik

E|--7--9--10--10--9--7--------10-----------7--]
B|----------------------7--8--8------------8--]
G|--------------------------------------9--9--]
D|-----------------------------------9-----9--]
A|-------------------------7------7--------7--]
E|--------7-----------------------------------]
                Em
Ng mapawi ang pagluha

E|-----------------]
B|--3--2--0--2--3--]
G|-----------------]
D|-----------------]
A|-----------------]
E|--------3--------]
          G
Ba't hanggang ngayon

E|-----0--2--3--0-----------]
B|--3--------------3--2--3--]
G|--------------------------]
D|--------------------------]
A|--------0-----------------]
E|--------------------------]
     A
Ay ikaw pa rin ang mahal

E|--5------------------2--5-----13--15--2--2h3-----5--2--0-----------0--2--]
B|--------3--2--2h3h5--------3------------------3--5--------------2-----3--]
G|-----2-------------------------------------------------------2--------2--]
D|--0-------------------------------------------------------2-----------0--]
A|------------------------2-------------3----------------0-----------------]
E|-------------------------------------------------------------------------]
Outro: D--Bm--G--A--D
            
Submit corrections


        Hanggang Ngayon lessons Hard to play? Try these video lessons and learn fast Hanggang Ngayon lessons
        
↑ Back to top | Tablatures and chords for acoustic guitar and electric guitar, ukulele, drums are parodies/interpretations of the original songs. You may use it for private study, scholarship, research or language learning purposes only