» » »

Kutless - Winds Of Change Tabs

Artists:  A B C D E F G H I J K L M N O P Q R S T U V W X Y Z # 

Winds Of Change Tabs

(ver. 1) Click to play this song!
Kutless
 Rating:
4/5 (4 votes)

 Winds Of Change lessons Tabs too difficult? Try these video lessons and learn fast
 
                Kutless
Tunning Db Ab Db Gb Bb Eb

Legend
x#-how many times to play bar
x-Scratch
(x#)-how many times to play chord

Intro/verse Guitar 1 clean
Eb|--------------------------------------------------------------------|
Bb|--------------------------------------------------------------------|
Gb|-------------------------------------------------------------2-0----|
Db|------3-----3---3-----3-----3---3------5-----5---5-----5---------3--|
Ab|--1-1---1-1---1--------------------3-3---3-3---3---3-3---3-3--------|
Db|------------------3-3---3-3---3-------------------------------------|x4

Guitar 2 echos when Guitar one plays on 4th time
Eb|--------------------------------------------------------------------|
Bb|--------------------------------------------------------------------|
Gb|--------------------------------------------------------------------|
Db|--3---------------3----------------5--------------------------------|
Ab|--1---------------x----------------3--------------------------------|
Db|------------------3-------------------------------------------------|

Guitar 1 clean
Eb|--------------------------------------------------------------------|
Bb|--------------------------------------------------------------------|
Gb|--------------------------------------------------------------------|
Db|------3-----3---3-----3-----3---3------5-----5---5-----5-----5---5--|
Ab|--1-1---1-1---1--------------------6-6---6-6---6---6-6---6-6---6----|
Db|------------------3-3---3-3---3-------------------------------------|

Guitar 2 echo
Eb|--------------------------------------------------------------------|
Bb|--------------------------------------------------------------------|
Gb|--------------------------------------------------------------------|
Db|--3---------------3----------------5--------------------------------|
Ab|--1---------------x----------------6--------------------------------|
Db|------------------3-------------------------------------------------|

Chorus Guitars 1 and 2 Distorted
Eb|---------------------------------------------------|
Bb|---------------------------------------------------|
Gb|-----------------------------------------55555555--|
Db|--555-7777-55-77-888-7777-88-77-33333333-55555555--|
Ab|--555------55----888------88----33333333-33333333--|
Db|--555------55----888------88----33333333-----------|x2

verse 2 Guitar 1 clean
Eb|--------------------------------------------------------------------|
Bb|--------------------------------------------------------------------|
Gb|-------------------------------------------------------------2-0----|
Db|------3-----3---3-----3-----3---3------5-----5---5-----5---------3--|
Ab|--1-1---1-1---1--------------------3-3---3-3---3---3-3---3-3--------|
Db|------------------3-3---3-3---3-------------------------------------|x4
                                      ^- Guitar 2 echo 

Guitar 2 echo *play once*
Eb|--------------------------------------------------------------------|
Bb|--------------------------------------------------------------------|
Gb|--------------------------------------------------------------------|
Db|-----------------------------------5--------------------------------|
Ab|-----------------------------------3--------------------------------|
Db|--------------------------------------------------------------------|

Guitar 2 echo
Eb|--------------------------------------------------------------------|
Bb|--------------------------------------------------------------------|
Gb|--------------------------------------------------------------------|
Db|--3---------------3----------------5--------------------------------|
Ab|--1---------------x----------------3--------------------------------|
Db|------------------3-------------------------------------------------|x3

Guitar 1 clean
Eb|--------------------------------------------------------------------|
Bb|--------------------------------------------------------------------|
Gb|--------------------------------------------------------------------|
Db|------3-----3---3-----3-----3---3------5-----5---5-----5-----5---5--|
Ab|--1-1---1-1---1--------------------6-6---6-6---6---6-6---6-6---6----|
Db|------------------3-3---3-3---3-------------------------------------|

Guitar 2 echo
Eb|--------------------------------------------------------------------|
Bb|--------------------------------------------------------------------|
Gb|--------------------------------------------------------------------|
Db|--3---------------3----------------5--------------------------------|
Ab|--1---------------x----------------6--------------------------------|
Db|------------------3-------------------------------------------------|

Chorus Guitar 1 and 2 Distorted
Eb|---------------------------------------------------|
Bb|---------------------------------------------------|
Gb|-----------------------------------------55555555--|
Db|--555-7777-55-77-888-7777-88-77-33333333-55555555--|
Ab|--555------55----888------88----33333333-33333333--|
Db|--555------55----888------88----33333333-----------|x4

Bridge Guitars 1 and 2 Distorted
Eb|--------------------------------------------------|
Bb|--------------------------------------------------|
Gb|--------------------------------------------------|
Db|--0(x8)--3(x8)--5-5-5xx5-5-5xxxx5-5-5xx5-5-5xxxx--|
Ab|--0------3------3-3-3xx3-3-3xxxx3-3-3xx3-3-3xxxx--|
Db|--0------3----------------------------------------|x3

Chorus Guitars 1 and 2 Distorted
Eb|---------------------------------------------------|
Bb|---------------------------------------------------|
Gb|-----------------------------------------55555555--|
Db|--555-7777-55-77-888-7777-88-77-33333333-55555555--|
Ab|--555------55----888------88----33333333-33333333--|
Db|--555------55----888------88----33333333-----------|x5

Chorus Continued Guitars 1 and 2 Distorted
Eb|---------------------------------------------------------|
Bb|---------------------------------------------------------|
Gb|-----------------------------------------555xx555xx5555--|
Db|--555-7777-55-77-888-7777-88-77-33333333-555xx555xx5555--|
Ab|--555------55----888------88----33333333-333xx333xx3333--|
Db|--555------55----888------88----33333333-----------------|

Finished
            
Submit corrections


        Winds Of Change lessons Hard to play? Try these video lessons and learn fast Winds Of Change lessons
        
↑ Back to top | Tablatures and chords for acoustic guitar and electric guitar, ukulele, drums are parodies/interpretations of the original songs. You may use it for private study, scholarship, research or language learning purposes only