» » »

Kutless - The Feeling Tabs

Artists:  A B C D E F G H I J K L M N O P Q R S T U V W X Y Z # 

The Feeling Tabs

(ver. 2) Click to play this song!
Kutless
 Rating:
4/5 (4 votes)

 The Feeling lessons Tabs too difficult? Try these video lessons and learn fast
 
                Kutless
The Feeling
Tuning Db Ab Db Gb Bb Eb
      (C# G# C# F# A# D#)

First off I'd like to say thank you Kutless for the free download of this
song "The Feeling" I can't wait for the new CD "To KNow That You're Alive"
to hit stores June 24th, 2008.

Legend
p-pull off                 v-vibrato                 \-slide down
x-scratch                  /-slide up                h-hammer on

Intro/verse 1:
Eb|----------------------------------------------------------------|
Bb|----------------------------------------------------------------|
Gb|----------------------------------------------------------------|
Db|--3p0-------------0--0---3p0-------------0--0-------------------|
Ab|--------3p0-------0--0---------3p0-------0--0-------------------|
Db|--------------3---0--0---------------3---0--0-------------------|

Eb|----------------------------------------------------------------|
Bb|----------------------------------------------------------------|
Gb|----------------------------------------------------------------|
Db|--3p0-------------5--5---3p0-------------5--5-------5-----------|
Ab|--------3p0-------5--5---------3p0-------5--5-------5---x-------|
Db|--------------3---5--5---------------3---5--5-------5---x--3v---|

Verse 1:
Eb|----------------------------------------------------------------|
Bb|----------------------------------------------------------------|
Gb|----------------------------------------------------------------|
Db|--0------3p0-------------0--0---3p0-------------5--5------------|
Ab|--0------------3p0-------0--0---------3p0-------5--5------------|
Db|--0------------------3---0--0---------------3---5--5------------|

Eb|----------------------------------------------------------------|
Bb|----------------------------------------------------------------|
Gb|----------------------------------------------------------------|
Db|--3p0-------------5--5-------5------------0------3p0------------|
Ab|--------3p0-------5--5-------5---x--------0------------3p0------|
Db|--------------3---5--5-------5---x--3v----0------------------3--|

Eb|----------------------------------------------------------------|
Bb|----------------------------------------------------------------|
Gb|----------------------------------------------------------------|
Db|--0--0---3p0-------------5--5---3p0-------------5--5---5-5-5--7-|
Ab|--0--0---------3p0-------5--5---------3p0-------5--5---5-5-5--7-|
Db|--0--0---------------3---5--5---------------3---5--5---5-5-5--7-|

Chorus:                                                      ------|
Eb|----------------------------------------------------------|     |
Bb|----------------------------------------------------------|     |
Gb|----------------------------------------------------------|     |
Db|--0---0--0--0--0--0--0--0--10--10-10-10-10-10-10-10-------|     |
Ab|--0---0--0--0--0--0--0--0--10--10-10-10-10-10-10-10-------|     |
Db|--0---0--0--0--0--0--0--0--10--10-10-10-10-10-10-10-------|     |
                                                                   |play
Eb|----------------------------------------------------------|     |
Bb|----------------------------------------------------------|     |
Gb|----------------------------------------------------------|     |
Db|--8---8--8--8--8--8--8--8--8--8--8--8--8--8--8--8---------|     |
Ab|--8---8--8--8--8--8--8--8--8--8--8--8--8--8--8--8---------|     |
Db|--8---8--8--8--8--8--8--8--8--8--8--8--8--8--8--8---------|     |
                                                                   |2
Eb|----------------------------------------------------------|     |
Bb|----------------------------------------------------------|     |
Gb|----------------------------------------------------------|     |
Db|----------------------------------------------------------|     |
Ab|--10---10--10--10--10--10--10--10--10---12----8---8-------|     |
Db|--10---10--10--10--10--10--10--10--10---12----8---8-------|     |
                                                                   |times
Eb|----------------------------------------------------------|     |
Bb|----------------------------------------------------------|     |
Gb|----------------------------------------------------------|     |
Db|----------------------------------------------------------|     |
Ab|--5---5----3--3----5--5----3--3----5--5----3--3----5-/7p0-|     |
Db|--5---5----3--3----5--5----3--3----5--5----3--3----5-/7p0-|     |
                                                             ------|

Verse 2:
Eb|----------------------------------------------------------------|
Bb|----------------------------------------------------------------|
Gb|----------------------------------------------------------------|
Db|--0--0---3p0-------------0------3p0-------------5--5------------|
Ab|--0--0---------3p0-------0------------3p0-------5--5------------|
Db|--0--0---------------3---0------------------3---5--5------------|

Eb|----------------------------------------------------------------|
Bb|----------------------------------------------------------------|
Gb|----------------------------------------------------------------|
Db|--3p0-------------5--5-------5------------0--0---3p0------------|
Ab|--------3p0-------5--5-------5---x--------0--0---------3p0------|
Db|--------------3---5--5-------5---x--3v----0--0---------------3--|

Eb|----------------------------------------------------------------|
Bb|----------------------------------------------------------------|
Gb|----------------------------------------------------------------|
Db|--5-\----3p0-------------5--5---3p0-------------5--5---5-5-5--7-|
Ab|--5-\----------3p0-------5--5---------3p0-------5--5---5-5-5--7-|
Db|--5-\----------------3---5--5---------------3---5--5---5-5-5--7-|

Chorus:                                                      ------|
Eb|----------------------------------------------------------|     |
Bb|----------------------------------------------------------|     |
Gb|----------------------------------------------------------|     |
Db|--0---0--0--0--0--0--0--0--10--10-10-10-10-10-10-10-------|     |
Ab|--0---0--0--0--0--0--0--0--10--10-10-10-10-10-10-10-------|     |
Db|--0---0--0--0--0--0--0--0--10--10-10-10-10-10-10-10-------|     |
                                                                   |play
Eb|----------------------------------------------------------|     |
Bb|----------------------------------------------------------|     |
Gb|----------------------------------------------------------|     |
Db|--8---8--8--8--8--8--8--8--8--8--8--8--8--8--8--8---------|     |
Ab|--8---8--8--8--8--8--8--8--8--8--8--8--8--8--8--8---------|     |
Db|--8---8--8--8--8--8--8--8--8--8--8--8--8--8--8--8---------|     |
                                                                   |2
Eb|----------------------------------------------------------|     |
Bb|----------------------------------------------------------|     |
Gb|----------------------------------------------------------|     |
Db|----------------------------------------------------------|     |
Ab|--10---10--10--10--10--10--10--10--10---12----8---8-------|     |
Db|--10---10--10--10--10--10--10--10--10---12----8---8-------|     |
                                                                   |times
Eb|----------------------------------------------------------|     |
Bb|----------------------------------------------------------|     |
Gb|----------------------------------------------------------|     |
Db|----------------------------------------------------------|     |
Ab|--5---5----3--3----5--5----3--3----5--5----3--3----5-/7p0-|     |
Db|--5---5----3--3----5--5----3--3----5--5----3--3----5-/7p0-|     |
                                                             ------|

Bridge:
Eb|----------------------------------------------------------------|
Bb|----------------------------------------------------------------|
Gb|--7-77-77-77-77--9-99-99-99-99--5-55-55-55-55--7-77-77-77-77----|
Db|--x-xx-xx-xx-xx--x-xx-xx-xx-xx--x-xx-xx-xx-xx--x-xx-xx-xx-xx----|
Ab|--5-55-55-55-55--7-77-77-77-77--3-33-33-33-33--5-55-55-55-55----|
Db|----------------------------------------------------------------|

Eb|----------------------------------------------------------------|
Bb|----------------------------------------------------------------|
Gb|--7-77-77-77-77--9-99-99-99-99--5-55-55-55-55-----10-9-7-7-\5---|
Db|--x-xx-xx-xx-xx--x-xx-xx-xx-xx--x-xx-xx-xx-xx-----x--x-x-x--x---|
Ab|--5-55-55-55-55--7-77-77-77-77--3-33-33-33-33--0--8--7-5-5-\3---|
Db|-----------------------------------------------0----------------|

Chorus:                                                      ------|
Eb|----------------------------------------------------------|     |
Bb|----------------------------------------------------------|     |
Gb|----------------------------------------------------------|     |
Db|--0---0--0--0--0--0--0--0--10--10-10-10-10-10-10-10-------|     |
Ab|--0---0--0--0--0--0--0--0--10--10-10-10-10-10-10-10-------|     |
Db|--0---0--0--0--0--0--0--0--10--10-10-10-10-10-10-10-------|     |
                                                                   |play
Eb|----------------------------------------------------------|     |
Bb|----------------------------------------------------------|     |
Gb|----------------------------------------------------------|     |
Db|--8---8--8--8--8--8--8--8--8--8--8--8--8--8--8--8---------|     |
Ab|--8---8--8--8--8--8--8--8--8--8--8--8--8--8--8--8---------|     |
Db|--8---8--8--8--8--8--8--8--8--8--8--8--8--8--8--8---------|     |
                                                                   |2
Eb|----------------------------------------------------------|     |
Bb|----------------------------------------------------------|     |
Gb|----------------------------------------------------------|     |
Db|----------------------------------------------------------|     |
Ab|--10---10--10--10--10--10--10--10--10---12----8---8-------|     |
Db|--10---10--10--10--10--10--10--10--10---12----8---8-------|     |
                                                                   |times
Eb|----------------------------------------------------------|     |
Bb|----------------------------------------------------------|     |
Gb|----------------------------------------------------------|     |
Db|----------------------------------------------------------|     |
Ab|--5---5----3--3----5--5----3--3----5--5----3--3----5-/7p0-|     |
Db|--5---5----3--3----5--5----3--3----5--5----3--3----5-/7p0-|     |
                                                             ------|

Outro: Guitar 1
Eb|----------------------------------------------------------------|
Bb|----------------------------------------------------------------|
Gb|--10101010\---101010-12-1212-12\---121212-14-1414-14\-----------|
Db|--x-x-x-x-----x-x-x---x--x-x--x-----x-x-x--x--x-x--x------------|
Ab|--8-8-8-8-\---8-8-8--10-1010-10\---101010-12-1212-12\-----------|
Db|----------------------------------------------------------------|

Outro: Guitar 2
Eb|----------------------------------------------------------------|
Bb|----------------------------------------------------------------|
Gb|----------------------------------------------------------------|
Db|----------------------------------------------------------------|
Ab|----------------------------------------------------------------|
Db|-----12\-0-0-0-121212-0-0-0-12\-0-0-0-121212-0-0-0-12\----------|

Guitar 1
Eb|----------------------------------------------------------------|
Bb|----------------------------------------------------------------|
Gb|--141414-13-1313-13\--------------------------------------------|
Db|---x-x-x--x--x-x--x---------------------------------------------|
Ab|--121212-11-1111-11\------5\------------------------------------|
Db|--------------------------5\------------------------------------|

GUitar 2:
Eb|----------------------------------------------------------------|
Bb|----------------------------------------------------------------|
Gb|----------------------------------------------------------------|
Db|----------------------------------------------------------------|
Ab|----------------------------------------------------------------|
Db|--0-0-0-121212-0-0-0--------------------------------------------|

Guitar 1
Eb|----------------------------------------------------------------|
Bb|----------------------------------------------------------------|
Gb|--10101010\---101010-12-1212-12\---121212-14-1414-14\-----------|
Db|--x-x-x-x-----x-x-x---x--x-x--x-----x-x-x--x--x-x--x------------|
Ab|--8-8-8-8-\---8-8-8--10-1010-10\---101010-12-1212-12\-----------|
Db|----------------------------------------------------------------|

Guitar 2:
Eb|----------------------------------------------------------------|
Bb|----------------------------------------------------------------|
Gb|----------------------------------------------------------------|
Db|----------------------------------------------------------------|
Ab|----------------------------------------------------------------|
Db|-----12\-0-0-0-121212-0-0-0-12\-0-0-0-121212-0-0-0-12\----------|

Guutar 1
Eb|----------------------------------------------------------------|
Bb|----------------------------------------------------------------|
Gb|--141414-13-1313-13\--------------------------------------------|
Db|---x-x-x--x--x-x--x---------------------------------------------|
Ab|--121212-11-1111-11\------10-h12----0--0------------------------|
Db|--------------------------10-h12----0--0------------------------|

Guitar 2:
Eb|----------------------------------------------------------------|
Bb|----------------------------------------------------------------|
Gb|----------------------------------------------------------------|
Db|----------------------------------------------------------------|
Ab|----------------------------------------------------------------|
Db|--0-0-0-121212-0-0-0--12\-10-h12----0--0------------------------|

Outro: Guitar 3 (Studio fill in)
Eb|----------------------------------------------------------------|
Bb|---------15b-----15b--------------------------------------------|
Gb|----------------------------------------------------------------|
Db|----------------------------------------------------------------|
Ab|----------------------------------------------------------------|
Db|----------------------------------------------------------------|

Finished!
            
Submit corrections


        The Feeling lessons Hard to play? Try these video lessons and learn fast The Feeling lessons
        
↑ Back to top | Tablatures and chords for acoustic guitar and electric guitar, ukulele, drums are parodies/interpretations of the original songs. You may use it for private study, scholarship, research or language learning purposes only