Home » K » Kt Tunstall »

Kt Tunstall - Hold On Tabs

Artists:  A B C D E F G H I J K L M N O P Q R S T U V W X Y Z # 

Hold On Tabs

(ver. 1) Click to play this song!
Kt Tunstall
 Rating:
3.5/5 (8 votes)
                Say you to me, You’re a bird with an eye for anything shiny
  2éme case
--x------------------------------------------------------------|
--0------------------------------------------------------------| (idem tout le
--x------------------------------------------------------------|   long)
--x------------------------------------------------------------|
--x------------------------------------------------------------|
--x------------------------------------------------------------|

Searching the land; for a hero of a man
--x--------------------------------0-----x---------------------|
--0--------------------------------x-----0---------------------|
--x--------------------------------x-----x---------------------|
--x--------------------------------x-----x---------------------|
--x--------------------------------x-----x---------------------|
--x--------------------------------x-----x---------------------|

You say I need, more than my fair share of attention
--x------------------------------------------------------------|
--0------------------------------------------------------------| (idem tout le
--x------------------------------------------------------------|   long)
--x------------------------------------------------------------|
--x------------------------------------------------------------|
--x------------------------------------------------------------|

But I you know, That just isn’t so
--x-------------0---------------------------------------------|
--0-------------x---------------------------------------------|
--x-------------x---------------------------------------------|
--x-------------x---------------------------------------------|
--x-------------x---------------------------------------------|
--x-------------x---------------------------------------------|

Am      E      Am                 Dm            Am
 Underneath, I felt the fire of a burning question
        E        C              E
Tearin’ me apart right from the very start
Am         E           Am                        Dm              Am
 And now I see that it don’t take a trick of the light to excite me
        E        C         E
So strong, So long, You’ll see

Refrain :
Am       Dm
Hold on, to what you
E          Am
Been given, lately
Am       Dm
Hold on, to what you
E        Am
No you got
Am       Dm
Hold on, to  what you
E         Am
Ben given, lately
Am             Dm                         E           Am
Hold on, cause the world will turn if you ready or not

Am, E, Am, Dm, Am, E, C, E

Am       E     Am                    Dm                   Am
 Simplicity, A heart of gold, an old head, and young shoulders
          E      C        E       Am
Quiet and lovely becomin' part of me
Am         E
 And now I see
       Am                     Dm            Am
        E        C           E
One light, burnin', furiously


  I was tired of January, tired of june
-x--------------x---------x--------x----------------------|
-0--------------2---------3--------5----------------------|
-2--------------x---------x--------x----------------------|
-x--------------x---------x--------x----------------------|
-x--------------x---------x--------x----------------------|
-x--------------x---------x--------x----------------------|

  I felt a change a-cominc,       Ooh
-x---------x--------------x--------x----------------------|
-0---------2--------------3--------5----------------------|
-2---------x--------------x--------x----------------------|
-x---------x--------------x--------x----------------------|
-x---------x--------------x--------x----------------------|
-x---------x--------------x--------x----------------------|

  I was tired of January, tired of june
-x--------------x---------x--------x----------------------|
-0--------------2---------3--------5----------------------|
-2--------------x---------x--------x----------------------|
-x--------------x---------x--------x----------------------|
-x--------------x---------x--------x----------------------|
-x--------------x---------x--------x----------------------|

  I felt a change a-cominc,       Ooh
-x---------x--------------x--------x----------------------|
-0---------2--------------3--------5----------------------|
-2---------x--------------x--------x----------------------|
-x---------x--------------x--------x----------------------|
-x---------x--------------x--------x----------------------|
-x---------x--------------x--------x----------------------|

  I felt a change a-cominc, I felt a change a-cominc
-x---------x--------------x--------x----------------------|
-0---------2--------------3--------5----------------------|
-2---------x--------------x--------x----------------------|
-x---------x--------------x--------x----------------------|
-x---------x--------------x--------x----------------------|
-x---------x--------------x--------x----------------------|

  I felt a change a-cominc, soon woohoho
-x---------x--------------x--------x----------------------|
-0---------2--------------3--------5----------------------|
-2---------x--------------x--------x----------------------|
-x---------x--------------x--------x----------------------|
-x---------x--------------x--------x----------------------|
-x---------x--------------x--------x----------------------|

Refrain

Et on fini ac toutes les cordes bloquées ! ^^
voila, j'éspère qu'elle assez comprehensible ma tablature, c'est ma toute première .. 
sniff (l'emotion !)..
            
Submit corrections

↑ Back to top | Tablatures and chords for acoustic guitar and electric guitar, ukulele, drums are parodies/interpretations of the original songs. You may use it for private study, scholarship, research or language learning purposes only