Home » K » Krystal Meyers »

Krystal Meyers - Only You Make Me Happy Tabs

Artists:  A B C D E F G H I J K L M N O P Q R S T U V W X Y Z # 

Only You Make Me Happy Tabs

(ver. 1) Click to play this song!
Krystal Meyers
ok.... first tab guys...

Verse 1:
(I was chasing my dreams...)
Chords: F#     Db2    Ab     B2
      EADGBE  EADGBE EADGBE EADGBE
      ||||||  |||||| |||||| ||||||
      244322  446644 466544 224422

Lead up to Chorus 1:
(Superficial fake and fleeting...)
Picking: E-1-2-1-2-1-2-4-2-1-2-1-2-1-2-4~-|
         B--2-2-2-2-2-2-2-2-2-2-2-2-2-2---|
         G--------------------------------|
         D--------------------------------|
         A--------------------------------|
         E--------------------------------|
Chord: B2
     EADGBE
     ||||||
     224422

Chorus:
(Only You make me happy...)
Chords: F#     Db2    Ab     B2
      EADGBE  EADGBE EADGBE EADGBE
      ||||||  |||||| |||||| ||||||
      244322  446644 466544 224422

Verse 2:
(I had it under control....)
Chords: F#     Db2    Ab     B2
      EADGBE  EADGBE EADGBE EADGBE
      ||||||  |||||| |||||| ||||||
      244322  446644 466544 224422

Lead up to Chorus 2:
(Fame and fortune........)
Picking: E-1-2-1-2-1-2-4-2-1-2-1-2-1-2-4~-|
         B--2-2-2-2-2-2-2-2-2-2-2-2-2-2---|
         G--------------------------------|
         D--------------------------------|
         A--------------------------------|
         E--------------------------------|
Chord: B2
     EADGBE
     ||||||
     224422

Chorus:
(Only You make me happy...)
Chords: F#     Db2    Ab     B2
      EADGBE  EADGBE EADGBE EADGBE
      ||||||  |||||| |||||| ||||||
      244322  446644 466544 224422

Solo:E--------------------------------------------------------|
     B-7-9-7-9-7-9-11-9-7-9-7-----7-9-7-9-7-9-11-9---4-6-7-9~-|
     G-----------------------6-8------------------------------|
     D--------------------------------------------------------|
     A--------------------------------------------------------|
     E--------------------------------------------------------|

Verse 3:
(Like a song in my head...)
Chords: F#     Db2    Ab     B2
      EADGBE  EADGBE EADGBE EADGBE
      ||||||  |||||| |||||| ||||||
      244322  446644 466544 224422
Which is all the same except on the (Elvis is dead but my King is alive..)  let B2 ring out

Chorus:
(Only You make me happy...)
Chords: F#     Db2    Ab     B2
      EADGBE  EADGBE EADGBE EADGBE
      ||||||  |||||| |||||| ||||||
      244322  446644 466544 224422
2nd Chorus (different words):
(Only You make me happy...)
Chords: F#     Db2    Ab     B2
      EADGBE  EADGBE EADGBE EADGBE
      ||||||  |||||| |||||| ||||||
      244322  446644 466544 224422
            
Submit corrections

↑ Back to top | Tablatures and chords for acoustic guitar and electric guitar, ukulele, drums are parodies/interpretations of the original songs. You may use it for private study, scholarship, research or language learning purposes only