Home » K » Krystal Meyers »

Krystal Meyers - Anticonformity Tabs

Artists:  A B C D E F G H I J K L M N O P Q R S T U V W X Y Z # 

Anticonformity Tabs

(ver. 1) Click to play this song!
Krystal Meyers
-------------------------------------------------------------------------------
-------------------------------------------------------------------------------

Verse:
E5/B5 - 5x

Chorus:
E5 A5 - 3x
C5# B5 A5
E5 B5 A5

Solo:
e|---------------------------------------------------------------------------|
B|---------------------------------------------------------------------------|
G|---6---8\9/8---6-----8\9/8--10----8\9/8------9-----------------------------|
D|---------------------------------------------9----9----7-------------------|
A|---4---6\7/6---4-----6\7/6--8-----6\7/6------7----9----7-------------------|
E|--------------------------------------------------7----5-------------------|

| /  slide up
| \  slide down
| h  hammer-on
| p  pull-off
| ~  vibrato
| +  harmonic
| x  Mute note
===============================================================================
            
Submit corrections

↑ Back to top | Tablatures and chords for acoustic guitar and electric guitar, ukulele, drums are parodies/interpretations of the original songs. You may use it for private study, scholarship, research or language learning purposes only