» » »

Kristian Stanfill - Say Say Tabs

Artists:  A B C D E F G H I J K L M N O P Q R S T U V W X Y Z # 

Say Say Tabs

(ver. 1) Click to play this song!
Kristian Stanfill
 Rating:
4/5 (4 votes)

 Say Say lessons Tabs too difficult? Try these video lessons and learn fast
 
                ---------------------------------------------------------------------------
                           Say, Say - Kristian Stanfill
---------------------------------------------------------------------------
Version: Live (Passion: Awakening)

Tuning: Standard
Key: C Major
Moderate distortion through whole song.

Intro x2
e|-----------------------------------------------------------------------|
B|-----------------------------------------------------------------------|
G|--------------------17--17-17-17-17------------------------------------|
D|---9--7--12--15-h17-17--17-17-17-17------------------------------------|
A|-----------------------------------------------------------------------|
E|-----------------------------------------------------------------------|


Verse x2
     C            A#           F
e|-----------------------------------------------------------------------|
B|-----------------------------------------------------------------------|
G|---5-------------------------10----------------------------------------|
D|---5------------8------------10----------------------------------------|
A|---3------------8------------8-----------------------------------------|
E|----------------6------------------------------------------------------|
     pm....................................


Chorus x2
     C            F           Am          F     G
e|----------------------------0------------------------------------------|
B|---5------------------------1------------------------------------------|
G|---5------------2-----------2-----------2-----4------------------------|
D|---5------------3-----------2-----------3-----5------------------------|
A|---3------------3-----------0-----------3-----5------------------------|
E|----------------1-----------------------1-----3------------------------|
     Full Rock Out Strum!


Repeat Verse


Repeat Chorus


Bridge x2 (Relatively Fast Picking)

    C
e|-----------------------------------------------------------------------|
B|--8-------8-------8------8-------8-------8-----------------------------|
G|-----------------------------------------------------------------------|
D|----10-10---10-10---10-----10-10---10-10---10--------------------------|
A|-----------------------------------------------------------------------|
E|-----------------------------------------------------------------------|
    pm...........................................
   
    A#
e|-----------------------------------------------------------------------|
B|--6-----6-----6-----6-----6-----6--------------------------------------|
G|-----------------------------------------------------------------------|
D|----8-8---8-8---8-----8-8---8-8---8------------------------------------|
A|-----------------------------------------------------------------------|
E|-----------------------------------------------------------------------|
    pm..........................................


Bridge x2 (continued)
  
    C
e|-----------------------------------------------------------------------|
B|--8-------8-------8------8-------8-------8-----------------------------|
G|----9--9----9--9----9------9--9----9--9----9---------------------------|
D|----10-10---10-10---10-----10-10---10-10---10--------------------------|
A|-----------------------------------------------------------------------|
E|-----------------------------------------------------------------------|

    A#
e|-----------------------------------------------------------------------|
B|--6-----6-----6-----6-----6-----6--------------------------------------|
G|----7-7---7-7---7-----7-7---7-7---7------------------------------------|
D|----8-8---8-8---8-----8-8---8-8---8------------------------------------|
A|-----------------------------------------------------------------------|
E|-----------------------------------------------------------------------|
   build by slowy reducing palm muting


Bridge x1 (continued)
  
    C                 A#
e|-----------------------------------------------------------------------|
B|--8-----------------6--------------------------------------------------|
G|--9-----------------7--------------------------------------------------|
D|--10----------------8--------------------------------------------------|
A|-----------------------------------------------------------------------|
E|-----------------------------------------------------------------------|
    Full Rock Out Strum!


Repeat Chorus X2


Intro x4


************************************

| /   slide up
| \   slide down
| h   hammer-on
| p   pull-off
| ~   vibrato
| +   harmonic
| x   Mute note
| b   Bend
| pb  Pre-bend
| br  Bend release
| pbr Pre-bend release
| brb Bend release bend

************************************
            
Submit corrections


        Say Say lessons Hard to play? Try these video lessons and learn fast Say Say lessons
        
↑ Back to top | Tablatures and chords for acoustic guitar and electric guitar, ukulele, drums are parodies/interpretations of the original songs. You may use it for private study, scholarship, research or language learning purposes only