» » »

Krewella - Somewhere To Run Tabs

Artists:  A B C D E F G H I J K L M N O P Q R S T U V W X Y Z # 

Somewhere To Run Tabs

(ver. 1) Click to play this song!
Krewella
 Rating:
4/5 (4 votes)

 Somewhere To Run  lessons Tabs too difficult? Try these video lessons and learn fast
 
                Tuning:Standard

Main Riff (4x)
e|----------------------------------------|
B|----------------------------------------|
G|----------------------------------------|
D|-----10-8-6------8-6-5------6-5---------|
A|-8-8---------6-6--------5-5-----8-4-5-6-|
E|----------------------------------------|

Verse (4x)
e|-------------|
B|-------------|
G|-------------|
D|-------------|
A|-8x-6x-5x-4x-|
E|-------------|

Pre Chorus
   F  Bb  F  Bb 
e|-8------8----------------------------|
B|-9---6--9---6------------------------|
G|-10--7--10--7------------------------|
D|-10--8--10--8------------------------|
A|-8------8-------8x-6x-5x-4x-8x-6x-5x-|
E|-------------------------------------|

Main Riff (4x)
e|----------------------------------------|
B|----------------------------------------|
G|----------------------------------------|
D|-----10-8-6------8-6-5------6-5---------|
A|-8-8---------6-6--------5-5-----8-4-5-6-|
E|----------------------------------------|

Verse (4x)
e|-------------|
B|-------------|
G|-------------|
D|-------------|
A|-8x-6x-5x-4x-|
E|-------------|

Pre Chorus
   F  Bb  F  Bb 
e|-8------8----------------------------|
B|-9---6--9---6------------------------|
G|-10--7--10--7------------------------|
D|-10--8--10--8------------------------|
A|-8------8-------8x-6x-5x-4x-8x-6x-5x-|
E|-------------------------------------|

Main Riff (4x)
e|----------------------------------------|
B|----------------------------------------|
G|----------------------------------------|
D|-----10-8-6------8-6-5------6-5---------|
A|-8-8---------6-6--------5-5-----8-4-5-6-|
E|----------------------------------------|

Bridge (4x)    (12x)
e|--------|---------|---|
B|--------|---------|---|
G|-10-8-7-|---------|---|
D|--------|---------|-3-|
A|-8--6-5-|-3p1-----|-3-|
E|--------|-----3p1-|-1-|

Main Riff (9x)
e|----------------------------------------|----|
B|----------------------------------------|----|
G|----------------------------------------|-10-|
D|-----10-8-6------8-6-5------6-5---------|----|
A|-8-8---------6-6--------5-5-----8-4-5-6-|-8--|
E|----------------------------------------|----|

Outro (3x)    
e|--------|
B|--------|
G|-10-8-7-|
D|--------|
A|-8--6-5-|
E|--------|            
Submit corrections


        Somewhere To Run  lessons Hard to play? Try these video lessons and learn fast Somewhere To Run  lessons
        
↑ Back to top | Tablatures and chords for acoustic guitar and electric guitar, ukulele, drums are parodies/interpretations of the original songs. You may use it for private study, scholarship, research or language learning purposes only