» » »

Kreator - Love Us Or Hate Us Tabs

Artists:  A B C D E F G H I J K L M N O P Q R S T U V W X Y Z # 

Love Us Or Hate Us Tabs

(ver. 1) Click to play this song!
Kreator
 Rating:
4/5 (4 votes)
    Love Us Or Hate Us lessons Tabs too difficult? Try these video lessons and learn fast
                Love us or hate us
As recorded by Kreator
(from the Album Extreme Aggression)

    Riff A
|------------------------------------------------------------------|
|------------------------------------------------------------------|
|------------------------------------------------------------------|
|-------9-----10----------7---6---------9-----10-------------------|
|-7-----7-----8-----9-----5---4---7-----7-----8--------------------|
|-5-0-0---0-0---0-0-7-0-0---0---0-5-0-0---0-0-----77777-7-7-7-7-7--|
    . .   . .   . .   . .   .   .   . .   . .     ..... . . . . .

                                                          end Riff A
|------------------------------------------------------------------|
|------------------------------------------------------------------|
|------------------------------------------------------------------|
|-------9-----10----------7---6---------9-----10------9---10-------|
|-7-----7-----8-----9-----5---4---7-----7-----8-------7---8---3-3--|
|-5-0-0---0-0---0-0-7-0-0---0---0-5-0-0---0-0-----------------1-1--|
    . .   . .   . .   . .   .   .   . .   . .                 . .


   Fill 1
|---------------------------------------------------------------------|
|---------------------------------------------------------------------|
|---------------------------------------------------------------------|
|---------------------------------------------------------------------|
|-3-----------------------------------2-2-2-2-2-2-2-2-2-2-2-2-2-2-2-2-|
|-1-----------------------------------0-0-0-0-0-0-0-0-0-0-0-0-0-0-0-0-|
                                      . . . . . . . . . . . . . . . .


  Riff B
|--------------------------------------------------------------------|
|--------------------------------------------------------------------|
|--------------------------------------------------------------------|
|-------------------9-----8-----7-------------------9-----8----------|
|-----------------6-----5-----4-------------------6-----5-----4~-----|
|-0-0-0-0-0-0-0-0-----0-----0-----0-0-0-0-0-0-0-0-----0-----0--------|
  . . . . . . . .     .     .     . . . . . . . .     .     .
                                                                        end Riff B
|--------------------------------------------------------------------------------|
|--------------------------------------------------------------------------------|
|--------------------------------------------------------------------------------|
|-------------------9-----8-----7-------------------9-----8---------8-----7------|
|-----------------6-----5-----4-------------------6-----5-----4~--5-----4-----3~-|
|-0-0-0-0-0-0-0-0-----0-----0-----0-0-0-0-0-0-0-0-----0-----0---------0-----0----|
  . . . . . . . .     .     .     . . . . . . . .     .     .



Riff C
                             7 times                            8th time
|-----------------------------------|-----------------------------------|
|-----------------------------------|-----------------------------------|
|----------------------------------o|-----------------------------------|
|-6-7-------------6-7---7---7-6----o|-6-7-------------------------------|
|-----------------8-9---9---9-8-----|-----------------9-9---9---9-8-----|
|-----0-0-0-0-0-0-----0---0---------|-----0-0-0-0-0-0-7-7-x-7-x-7-6-----|
      . . . . . .     .   .               . . . . . .     .   .

Fill 2

|---------------------------------------------------|
|---------------------------------------------------|
|---------------------------------------------------|
|-7-7-7-7-6-6-6-6-5-------8---7-----------4---------|
|-5-5-5-5-4-4-4-4-3-------6---5---5-----------5-----|
|---------------------------------3-------2---3-----|
  . . . . . . . .


Riff D (not sure about that one...)
       3                               3
      |||                             |||
|---------------------------------------------------------------|
|---------------------------------------------------------------|
|-----------------------------------------------------7\6--9-9--|
|---------9-----------------7--9----------9-----------5\4--7-7--|
|---------7--------------10-5--7----------7---------------------|
|-0-0-320---0-0-0-0-0-0--8--------0-0-320---0-0-0-0-0-----------|
  . .       . . . . . .  .  .  .  . .       . . . . .



Riff E

|-------------------------------------|
|-------------------------------------|
|-------------------------------------|
|---------4-------3-------------------|
|---------2-------1-----------7---6---|
|-0-0-320---0-320---0-0-0-0-0-5-\-4---|
  . .       .       . . . . .         


|------------------------------------------------|
|------------------------------------------------|
|------------------------------------------------|
|-----------4-------3----------------------------|
|-----------2-------1----------------------------|
|---0-0-320---0-320---0-0-0-0-0-4-4-4-4-5-5-5-5--|
    . .       .       . . . . . . . . . . . . .



Riff F

|---------------------------------------|
|---------------------------------------|
|---------------------------------------|
|-----------------7---------------------|
|-2-------3-------5-------5---33335555--|
|-0-------1---------------3-------------|
                              ........



Fill 3                                Fill 4

|---------------------------|         |-------------|
|---------------------------|         |-------------|       
|---------------------------|         |-------------|
|------9--------------------|         |-----7---9---|
|-666667---------------9\8--|         |-10--5---7---|
|----------7777777777777\6--|         |-8-----------|
  .....    ............


STRUCTURE
~~~~~~~~~

Play Riff A 3 times
Play Fill 1 once
Play Riff B 4 times
Play Riff C 8 times
Play Fill 2 once
Play Riff D 2 times
Play Riff E 2 times
Play Riff F 2 times
Play Riff E 2 times
Play Riff F 2 times
Play Riff E 2 times
Play Fill 3 once
Play Riff A 2 times
Play Fill 1 once
Play Riff B 4 times
Play Fill 4 once
Play Riff C once
            
Submit corrections

↑ Back to top | Tablatures and chords for acoustic guitar and electric guitar, ukulele, drums are parodies/interpretations of the original songs. You may use it for private study, scholarship, research or language learning purposes only