Home » K » Korpiklaani »

Korpiklaani - Sumussa Hmrn Aamun Tabs

Artists:  A B C D E F G H I J K L M N O P Q R S T U V W X Y Z # 

Sumussa Hmrn Aamun Tabs

(ver. 1) Click to play this song!
Korpiklaani
 Rating:
4/5 (4 votes)
                (Intro)
D-------------------------------------------------|
A-------------------------------------------------|
F-------------------------------------------------|
C------3-2-------0-3--------3-2------0----3-------|
G------------3--------------------3-------1-------|
D-0-0------------------0-0------------------------|


D---------------------------------------------------------|
A---------------------------------------------------------|
F---------------------------------------------------------|
C---------------------------------------------------------|
G--------5-7-------7-9--------9-10-------9----------------|
D--0-0---------0----------0----------0--------------------|
            
Submit corrections

↑ Back to top | Tablatures and chords for acoustic guitar and electric guitar, ukulele, drums are parodies/interpretations of the original songs. You may use it for private study, scholarship, research or language learning purposes only