Home » K » Korpiklaani »

Korpiklaani - Korpiklaani Bass

Artists:  A B C D E F G H I J K L M N O P Q R S T U V W X Y Z # 

Korpiklaani Bass

(ver. 1) Click to play this song!
Korpiklaani
Korpiklaani- Korpiklaani


Bass Tab


Standard tuning

  Just follow the rythym here:

G----------------------------------|
D----------------------3-----------|
A--33333--356-65--5-6-6-66-5-53--5-|
E---------------6--------------6---|


End of verse hits

G-------|
D-------|
A--33333
E-------


Pre Chorus

   q  q  e e e e q  q  e e q
G----------------------------|
D------------1---------1-----|
A--3--3--1-3---3-1--1----3-3-|
E----------------------------|

Walk up to the chorus on the last bar:

G-------------------------------|
D------------1-------------1-2--|
A--3--3--1-3---3-1--1--3-5------|
E-------------------------------|

Chorus

G---------------|
D--3------------|
A-----1--3------|
E-----------4-3-|

Walk up to verse:

G----------|
D----------|
A--3-5-6-8-|
E----------|

Bridge

G---------------|
D---------------|
A-----3------3--|
E--1-----4-3----|

Fast part (this sounds cooler if you play only on the offbeats)

G-----------------------------------|
D-----------------------------------|
A----------33333333--------33333333-|
E--11111111--------44443333---------|

Repeat pre chorus

Repeat chorus

Repeat verse (the instrumental part)
            
Submit corrections

↑ Back to top | Tablatures and chords for acoustic guitar and electric guitar, ukulele, drums are parodies/interpretations of the original songs. You may use it for private study, scholarship, research or language learning purposes only