Home » K » Korpiklaani »

Korpiklaani - Kipumylly Tabs

Artists:  A B C D E F G H I J K L M N O P Q R S T U V W X Y Z # 

Kipumylly Tabs

(ver. 1) Click to play this song!
Korpiklaani
 Rating:
4/5 (4 votes)
                *******************************************************

Kipumylly by Korplikanni

TUNING: D A D G B E

DIFFICULTY: EASY

ALL INSTRUMENTS TRANSCRIBED FOR 1 GUITAR

*******************************************************


Intro
e|-------------------------------------5h6-----8-----10|
B|---------------------------4-6-----------------------|
G|--------------3-----5--------------------------------|
D|3----5h6---------------------------------------------|
A|-----------------------------------------------------|
D|-----------------------------------------------------|


Instrumental Part A
e|----------------------------------|
B|----------------------------------|
G|12-12-10-12-10-12-12-8-7-7-8-5-5-3|
D|----------------------------------|
A|----------------------------------|
D|10-------------10------5-----3----| X2


Instrumental Part B
e|-------------------------------|
B|-------------------------------|
G|5--5--5-7-8-8-8-10-10-8-7-5-5-3|
D|-------------------------------|
A|-------------------------------|
D|3---------6-----8---------3----| X1

e|-------------------------------|
B|-------------------------------|
G|5--5--5-7-8-8-8-10-10-12-12-12-|
D|-------------------------------|
A|-------------------------------|
D|3---------6-----8--------10----| X1


//And thats basically it!
// Repeat until you feel dizzy or hungover ;-)

*******************************************************

// NB: There are several variations of the main melody that are played
// by the violin. These become more complex as the song progresses. I
//think its best to just improv this kind of thing but here is an
// apporximate tab of one variation for all you lazy drunks. :-p

Bridge variation (Starts @ 1:35)

e|---------------------------|-----|-----------------|-----|
B|---------------------------|-----|-----------------|-----|
G|10h12-10h12-10-10-12-5-5~~~|8-7-8|7h8-7h8-7h8p7s5-5|8-7-8|
D|---------------------------|-----|-----------------|-----|
A|---------------------------|-----|-----------------|-----|
E|---------------------------|-----|-----------------|-----| x2

e|----------------|-----|----------5----|
B|----------------|4-3-4|4h6-6-4-6------|
G|----------3-5~~~|-----|------------5-5|
D|3---6-5-6-------|-----|---------------|
A|----------------|-----|---------------|
E|----------------|-----|---------------| x1

e|----------------|-----|----------5-5-5|
B|----------------|4-3-4|4h6-6-4-6------|
G|----------3-5~~~|-----|---------------|
D|3---6-5-6-------|-----|---------------|
A|----------------|-----|---------------|
E|----------------|-----|---------------| x1

//............^
//............|
//Make sure you hold this note!

*******************************************************

STRUCTURE (RELATIVE TO / AND) LYRICS:~

// The whole song is just part A then part B repeated over and over.
// The guide below will illustrate where the lyrics are.
// Parts without lyrics are just marked "Instrumental" then "A" or "B"
// depending on where the guitar is at that point in time.


Intro

Instrumental A

Instrumental B

Hennon neion kova koura
myllyn kampee kangistavi,
kalveen immen hauras katse
kivun kantaa maailmalle.

Jauhaa mylly murhesia,
tuottaa tuskan taikinata.
Jauhaa mylly murhesia,
nostattavi vahinkoja.

Vääryyksien vahva rasva
saapi kivun voitimeksi.
Jauho säryn siemenistä,
satosesta kyisen pellon.

Jauhaa mylly murhesia,
tuottaa tuskan taikinata.
Jauhaa mylly murhesia,
nostattavi vahinkoja.

Instrumental A

Jauhaa mylly murhesia,
tuottaa tuskan taikinata.
Jauhaa mylly murhesia,
nostattavi vahinkoja.

Instrumental A (Variation)

Instrumental B (Variation)

Paha veri maitoseksi,
tytön itku mausteheksi,
sitä musta hiiva nostaa,
hönkä hurja turvottavi.

Jauhaa mylly murhesia,
tuottaa tuskan taikinata.
Jauhaa mylly murhesia,
nostattavi vahinkoja.

Kun on kipu valmistunu,
särky, ähky kirvottunu,
kipumylly jo uutta jauhaa,
uuen turman jytkyttävi.

Jauhaa mylly murhesia,
tuottaa tuskan taikinata.
Jauhaa mylly murhesia,
nostattavi vahinkoja. 

Instrumental A

Jauhaa mylly murhesia,
tuottaa tuskan taikinata.
Jauhaa mylly murhesia,
nostattavi vahinkoja. 

Instrumental A

Jauhaa mylly murhesia,
tuottaa tuskan taikinata.
Jauhaa mylly murhesia,
nostattavi vahinkoja. 

Instrumental A

Instrumental B

Outro

*******************************************************


//A video of me playing this tab is available at 
//For a comparison of English and Finnish Lyrics go to 

*******************************************************
            
Submit corrections

↑ Back to top | Tablatures and chords for acoustic guitar and electric guitar, ukulele, drums are parodies/interpretations of the original songs. You may use it for private study, scholarship, research or language learning purposes only