» » »

Korn - Its Me Again Tabs

Artists:  A B C D E F G H I J K L M N O P Q R S T U V W X Y Z # 

Its Me Again Tabs

(ver. 1) Click to play this song!
Korn
 Rating:
4/5 (4 votes)

 Its Me Again lessons Tabs too difficult? Try these video lessons and learn fast
 
                
Instrument: 7 String Guitar


Tuning: 1 Step Down (A D G C F A D)

Intro

D|--------------------------------------------------||
A|--------------------------------------------------||
F|--------------------------------------------------||
C|--------------------------------------------------||
G|--------------------------------------------------||
D|--------------------------------------------------||
A|--3----3----3----3--------------------------------||
     Harmonics

Intro 2
Repeart Four Times

D|--------------------------------------------------||
A|--------------------------------------------------||
F|--------------------------------------------------||
C|--------------------------------------------------||
G|--------------------------------------------------||
D|--------------------------------------------------||
A|--233-344-5565r4r3--------------------------------||

Intro 3

D|--------------------------------------------------||
A|--------------------------------------------------||
F|--------------------------------------------------||
C|--------------------------------------------------||
G|--------------------------------------------------||
D|--------------------------------------------------||
A|-111--111--122--233-------------------------------||

Fill


D|--------------------------------------------------||
A|--------------------------------------------------||
F|--------------------------------------------------||
C|--------------------------------------------------||
G|--------------------------------------------------||
D|--3----------333----------------------------------||
A|------111----111----111---------------------------||

Verse


D|--------------------------------------------------||
A|--------------------------------------------------||
F|--------------------------------------------------||
C|--------------------------------------------------||
G|--------------------------------------------------||
D|--------------------------------------------------||
A|--2333-332--6r5--5r4--4r3-------------------------||


D|--------------------------------------------------||
A|--------------------------------------------------||
F|--------------------------------------------------||
C|--------------------------------------------------||
G|--------------------------------------------------||
D|--------------------------------------------------||
A|--2333-332--6r5--5r4------------------------------||

Chorus


Tremelo Picking
D|--------------------------------------------------||
A|--------------------------------------------------||
F|-----7------9-------------------------------------||
C|-----x------x-------------------------------------||
G|-----5------7-------------------------------------||
D|--------------------------------------------------||
A|--------------------------------------------------||

Then Do this again for ages

D|--------------------------------------------------||
A|--------------------------------------------------||
F|--------------------------------------------------||
C|--------------------------------------------------||
G|--------------------------------------------------||
D|--------------------------------------------------||
A|-111--111--122--233-------------------------------||

Then this

D|--------------------------------------------------||
A|--------------------------------------------------||
F|--------------------------------------------------||
C|--------------------------------------------------||
G|--------------------------------------------------||
D|--------------------------------------------------||
A|--2333-332--6r5--5r4--4r3-------------------------||


D|--------------------------------------------------||
A|--------------------------------------------------||
F|--------------------------------------------------||
C|--------------------------------------------------||
G|--------------------------------------------------||
D|--------------------------------------------------||
A|--2333-332--6r5--5r4------------------------------||

Then the Chorus again

Tremelo Picking
D|--------------------------------------------------||
A|--------------------------------------------------||
F|-----7------9-------------------------------------||
C|-----x------x-------------------------------------||
G|-----5------7-------------------------------------||
D|--------------------------------------------------||
A|--------------------------------------------------||

Bridge

Repeat 3 Times

D|---------------------------------------------------------------||
A|---------------------------------------------------------------||
F|---------------------------------------------------------------||
C|---------------------------------------------------------------||
G|---------------------------------------------------------------||
D|---------------------------------------------------------------||
A|--1~--0--0000---0-1~--0--0000---1~--0---0000--0--4~--343232----||

Then on the fourth time it goes into just Jonathan singing and Munky Guitaring. It's the 
as above, but every note is a power chord.

D|---------------------------------------------------------------||
A|---------------------------------------------------------------||
F|---------------------------------------------------------------||
C|---------------------------------------------------------------||
G|--3~--2--2222---2-3~--2--2222---3~--2---2222--2--6~--565454----||
D|--3~--2--2222---2-3~--2--2222---3~--2---2222--2--6~--565454----||
A|--1~--0--0000---0-1~--0--0000---1~--0---0000--0--4~--343232----||

Then Do this again 3 Times

D|--------------------------------------------------||
A|--------------------------------------------------||
F|--------------------------------------------------||
C|--------------------------------------------------||
G|--------------------------------------------------||
D|--------------------------------------------------||
A|-111--111--122--233-------------------------------||

Then This Once

D|--------------------------------------------------||
A|--------------------------------------------------||
F|--------------------------------------------------||
C|--------------------------------------------------||
G|--------------------------------------------------||
D|--3------333--------------------------------------||
A|----111--111--111---------------------------------||

Then the chorus

Tremelo Picking
D|--------------------------------------------------||
A|--------------------------------------------------||
F|-----7------9-------------------------------------||
C|-----x------x-------------------------------------||
G|-----5------7-------------------------------------||
D|--------------------------------------------------||
A|--------------------------------------------------||

Then this until about 3:22

D|--------------------------------------------------||
A|--------------------------------------------------||
F|--------------------------------------------------||
C|--------------------------------------------------||
G|--------------------------------------------------||
D|--------------------------------------------------||
A|-111--111--122--233-------------------------------||

Then Repeat this Three times

D|--------------------------------------------------||
A|--------------------------------------------------||
F|--------------------------------------------------||
C|--------------------------------------------------||
G|-3~-4~-5~-----------------------------------------||
D|-3~-4~-5~-----------------------------------------||
A|-1~-2~-3~-----------------------------------------||

End with something like this, either as single notes or power chords*

D|--------------------------------------------------||
A|--------------------------------------------------||
F|--------------------------------------------------||
C|--------------------------------------------------||
G|--------------------------------------------------||
D|--------------------------------------------------||
A|-11-11--12---3------------------------------------||

The End, hope i didn't over complicate the song. Enjoy! I Think about 95% of the song is right.

*I'm not too sure about the last few notes, They're hard to figure out as David's 
his snare or something so hard that it overpowers the guitar a bit.

It's a pretty fast and furious song that lets some anger out when you play along, so 
enjoy!
            
Submit corrections


        Its Me Again lessons Hard to play? Try these video lessons and learn fast Its Me Again lessons
        
↑ Back to top | Tablatures and chords for acoustic guitar and electric guitar, ukulele, drums are parodies/interpretations of the original songs. You may use it for private study, scholarship, research or language learning purposes only