Home » K » Korn »

Korn - Embrace Tabs

Artists:  A B C D E F G H I J K L M N O P Q R S T U V W X Y Z # 

Embrace Tabs

(ver. 2) Click to play this song!
Korn
KoRn - Embrace
Guitarists: Munky and Head


This is only the intro, bridge and verse cuz I'm still figuring out the rest:
You need a 7 string guitar, a whammy pedal to play the main intro,
add some chorus to the main intro part and it sounds pretty much perfect.

('+'=whammy pedal down, '-'=whammy up)

(Main intro) - Play this clean with whammy (1st harmony setting) and chorus:
|-----------------|
|-----------------|
|-----------------|
|-----------------|
|------4-------5--|
|-----------------|
|--0-3----0-3-----| <--x8
   - - +  - -  +

(Bridge) - Heave distortion:
|--------------|
|--------------|
|--------------|
|--------------|
|--------------|
|-3-2--2--3-2--|
|-1-0--0--1-0--| <--Play as many times as needed

(Verse):
|--------------|
|--------------|
|--------------|
|--------------|
|--------------|
|-2-2--2--2-2--|
|-0-0--0--0-0--| <--Play as many time as needed

(CBridge):
|------------------|
|------------------|
|------------------|
|------------------|
|--5h6p5-5h6p5-----|
|----------------2-|
|-3-----------3-4--|

|-------------------|
|-------------------|
|-------------------|
|-------------------|
|--5h6p5-5h6p5------|
|-------------------|
|-3-----------3-6-4-|

|------------------|
|------------------|
|------------------|
|------------------|
|--5h6p5-5h6p5-----|
|----------------2-|
|-3-----------3-4--|

|-----------------|
|-----------------|
|-----------------|
|-----------------|
|--5h6p5-5h6p5--6-|
|--------------5--|
|-3-----------3---|

(Chorus):

|-----------------------|
|-----------------------|
|-----------------------|
|-----------------------|
|-10--9--8--7/8\7-------|
|-8---7--6--5/6\5--8--7-|
|------------------6--5-|



Thats all I have of it now.
            
Submit corrections

↑ Back to top | Tablatures and chords for acoustic guitar and electric guitar, ukulele, drums are parodies/interpretations of the original songs. You may use it for private study, scholarship, research or language learning purposes only