» » »

Kool And The Gang - Summer Madness Bass

Artists:  A B C D E F G H I J K L M N O P Q R S T U V W X Y Z # 

Summer Madness Bass

(ver. 1) Click to play this song!
Kool And The Gang
 Rating:
4/5 (4 votes)
                This is mi first bass tab. I hope you enjoy it.
You can add notes if you want ;) .

G--------------------------------------------|
D--------------------------------------------|
A--22----2---2------44-------4---4-----------|
E------2---2------4--------4---4------2------|

G--------------------------------------------|
D--------------------------------------------|
A--22----2---2------44-------4---4-----------|
E------2---2------4--------4---4------2------|

G--------------------------------------------|
D--------------------------------------------|
A--22----2---2------44-------4---4-----------|
E------2---2------4--------4---4------2------|

G--------------------------------------------|
D--------------------------------------------|
A--22----2---2------44-------4---4-----------|
E------2---2------4--------4---4------2------|

G--------------------------------------------|
D--------------------------------------------|
A--22----2---2------44-------4---4-----------|
E------2---2------4--------4---4------2------|
            
Submit corrections

↑ Back to top | Tablatures and chords for acoustic guitar and electric guitar, ukulele, drums are parodies/interpretations of the original songs. You may use it for private study, scholarship, research or language learning purposes only