» » »

Kool And The Gang - Get Down On It Bass

Artists:  A B C D E F G H I J K L M N O P Q R S T U V W X Y Z # 

Get Down On It Bass

(ver. 1) Click to play this song!
Kool And The Gang
 Rating:
4/5 (4 votes)
                Band: Kool and the Gang
Tuning: Standard(E-A-D-G)
Difficulty: Easy


Intro :

G|--------------------------------------------------------------------------|
D|--------------------------------------------------------------------------|
A|------2-3-5-----2-----2-3-5-----------------------------------------------|
E|--0-----------5---0-------------------------------------------------------|

Riff 1 : ( During all the song :) )

G|-----------------------------------------------------------------------|
D|-----------------------------------------------------------------------|
A|------2-2------2------2-2-5---5-5--------------------------------------|
E|--0-------5--5----0----------------------------------------------------|

Riff 2 : ( the same as the intro )

G|--------------------------------------------------------------------------|
D|--------------------------------------------------------------------------|
A|------2-3-5-----2-----2-3-5-----------------------------------------------|
E|--0-----------5---0-------------------------------------------------------|



Intro  x1
Riff 1 x12
Riff 2 x2
Riff 1 x8
Riff 2 x2
Riff 1 (until the end)

Have fun my friends :) it's really easy and groovy.
            
Submit corrections

↑ Back to top | Tablatures and chords for acoustic guitar and electric guitar, ukulele, drums are parodies/interpretations of the original songs. You may use it for private study, scholarship, research or language learning purposes only