Home » K » Konami »

Konami - Metal Gear Solid 2 Theme Tabs

Artists:  A B C D E F G H I J K L M N O P Q R S T U V W X Y Z # 

Metal Gear Solid 2 Theme Tabs

(ver. 1) Click to play this song!
Konami
Tuning:

e|---------------------------5-3-------5-8---7-8-10-8---------7--8-7----------------|
B|-5-3-----3-5-5-3---3-5--------5-3---5--------------10---8-10-------10-8-10----~15~|
G|----5-------2-----5------------5--------------------------------------------------|
D|----------------------------------------------------------------------------------|
A|----------------------------------------------------------------------------------|
E|----------------------------------------------------------------------------------|

e|------------------------7-5--------7-10---9-10-12-10----------9--10-9-------------|
B|-7-5---5-7-7-5----5-7------7--5---7-----------------12---10-12--------12-10-12----|
G|----7-----4------7----------7-----------------------------------------------------|
D|----------------------------------------------------------------------------------|
A|----------------------------------------------------------------------------------|
E|----------------------------------------------------------------------------------|
            
Submit corrections

↑ Back to top | Tablatures and chords for acoustic guitar and electric guitar, ukulele, drums are parodies/interpretations of the original songs. You may use it for private study, scholarship, research or language learning purposes only