» » »

Koji Kondo - Temple Of Time Tabs

Artists:  A B C D E F G H I J K L M N O P Q R S T U V W X Y Z # 

Temple Of Time Tabs

(ver. 2) Click to play this song!
Koji Kondo
 Rating:
4/5 (4 votes)

 Temple Of Time lessons Tabs too difficult? Try these video lessons and learn fast
 
                -------------------------------------------------------------------------------
-------------------------------------------------------------------------------

I made this because I couldn't find any full tab of this song/loop. That's all.
I broke it into four phrases, the first one being the Song of Time. 
Please listen for precise timing.

Tuning:Standard

e|-----------------------------------------------------|
B|-----------------------------------------------------|
G|--2--------2--------2--5--4--0-----0--2--------------|
D|-----0--3-----0--3--------------3--------0-----2--0--|X 2
A|--------------------------------------------3--------|
E|-----------------------------------------------------|

e|---------------------------------------------|
B|---------------------------------------------|
G|---------------------------------------------|
D|--0-----2-----2--3--0----0-----2----3--5--0--|
A|-----3-----3----------------3-----3----------|
E|---------------------------------------------|


e|--------------------------------------|
B|--------------------------------------|
G|--2--5--4--5--2--5--0--2--------------|
D|--------------------------0-----2--0--|
A|-----------------------------3--------|
E|--------------------------------------|

e|-----------------------------|
B|-----------------------------|
G|-----------------------------|
D|--3--5--3--5--2-----3--2--0--|
A|-----------------3-----------|
E|-----------------------------|

END, OR CONTINUE AD INFINITUM.
            
Submit corrections


        Temple Of Time lessons Hard to play? Try these video lessons and learn fast Temple Of Time lessons
        
↑ Back to top | Tablatures and chords for acoustic guitar and electric guitar, ukulele, drums are parodies/interpretations of the original songs. You may use it for private study, scholarship, research or language learning purposes only