» » »

Koji Kondo - Song Of Healing Tabs

Artists:  A B C D E F G H I J K L M N O P Q R S T U V W X Y Z # 

Song Of Healing Tabs

(ver. 3) Click to play this song!
Koji Kondo
 Rating:
3.9/5 (22 votes)

 Song Of Healing lessons Tabs too difficult? Try these video lessons and learn fast
 
                Tuning: E Standard 

e|------------------------------|
B|------------------------------|
G|-4-2-----4-2-----4-2----------|
D|-----3-------3-------2-0-2----|
A|------------------------------|
E|------------------------------| X2

e|------------------------------|
B|-6-------6-------6------------|
G|---5-4-----5-4-----5-4-2-4----|
D|------------------------------|
A|------------------------------|
E|------------------------------|

e|---------------------7--------|
B|-6-------6-------6-5---8------|
G|---5-4-----5-4----------------|
D|------------------------------|
A|------------------------------|
E|------------------------------|

e|----------10-10-10-------8----|
B|-10-10-10----------8-8-8---8--|
G|------------------------------|
D|------------------------------|
A|------------------------------|
E|------------------------------|

e|-------6-6-6-----5------------|
B|-6-6-6-------5-----5----------|
G|---------------7--------------|
D|------------------------------|
A|------------------------------|
E|------------------------------|

e|----------10-10-10-------8----|
B|-10-10-10----------8-8-8---8--|
G|------------------------------|
D|------------------------------|
A|------------------------------|
E|------------------------------|

e|--------6-8-10-------10-12----|
B|-6-8-10--------10-12----------|
G|------------------------------|
D|------------------------------|
A|------------------------------|
E|------------------------------|            
Submit corrections


        Song Of Healing lessons Hard to play? Try these video lessons and learn fast Song Of Healing lessons
        
↑ Back to top | Tablatures and chords for acoustic guitar and electric guitar, ukulele, drums are parodies/interpretations of the original songs. You may use it for private study, scholarship, research or language learning purposes only