» » »

Koji Kondo - Sarias Song Tabs

Artists:  A B C D E F G H I J K L M N O P Q R S T U V W X Y Z # 

Sarias Song Tabs

(ver. 2) Click to play this song!
Koji Kondo
 Rating:
3.7/5 (21 vote)

 Sarias Song lessons Tabs too difficult? Try these video lessons and learn fast
 
                E----5-7---5-7--5-7-/12-10--7-8-7-------------|
B--6-----6-----6------------------8-5--5-8-5--|
G-------------------------------------7-------|
D---------------------------------------------|
A---------------------------------------------|
E---------------------------------------------|

E----5-7--5-7--5-7-/12-10-----12--7----7-----0-|
B--6-----6----6----------12-13------8----8-----|
G------------------------------------------7---|
D----------------------------------------------|
A----------------------------------------------|
E----------------------------------------------|

E-----------------------|----------------------0---|
B------------0--1--0----|----------------1--3------|
G--------0-2------------|---------0-2-4------------|
D-0-2-3--------------2--|--0-2-3-------------------|
A-----------------------|--------------------------|
E-----------------------|--------------------------|

E-----------------------|---------------------------------|--0--1------0--|
B------------0--1--0----|------------------0---1--0-3-1---|---------3-----|
G--------0-2------------|----------0---2-0---2------------|---------------|
D-0-2-3--------------2--|--2-0-3-2---3--------------------|---------------|
A-----------------------|---------------------------------|---------------|
E-----------------------|---------------------------------|---------------|
            
Submit corrections


        Sarias Song lessons Hard to play? Try these video lessons and learn fast Sarias Song lessons
        
↑ Back to top | Tablatures and chords for acoustic guitar and electric guitar, ukulele, drums are parodies/interpretations of the original songs. You may use it for private study, scholarship, research or language learning purposes only